  0
SECTION
  2
HEADER
  9
$ACADVER
  1
AC1027
  9
$ACADMAINTVER
 70
   105
  9
$DWGCODEPAGE
  3
ANSI_1252
  9
$LASTSAVEDBY
  1
gronertw
  9
$REQUIREDVERSIONS
160
                 0
  9
$INSBASE
 10
0.0
 20
0.0
 30
0.0
  9
$EXTMIN
 10
-1.594321198121122
 20
24.1121332322299
 30
0.0
  9
$EXTMAX
 10
319.6386212943654
 20
176.1397340422299
 30
0.0
  9
$LIMMIN
 10
0.0
 20
0.0
  9
$LIMMAX
 10
12.0
 20
9.0
  9
$ORTHOMODE
 70
     0
  9
$REGENMODE
 70
     1
  9
$FILLMODE
 70
     1
  9
$QTEXTMODE
 70
     0
  9
$MIRRTEXT
 70
     0
  9
$LTSCALE
 40
1.0
  9
$ATTMODE
 70
     1
  9
$TEXTSIZE
 40
0.2
  9
$TRACEWID
 40
0.05
  9
$TEXTSTYLE
  7
Standard
  9
$CLAYER
  8
0
  9
$CELTYPE
  6
ByLayer
  9
$CECOLOR
 62
   256
  9
$CELTSCALE
 40
1.0
  9
$DISPSILH
 70
     0
  9
$DIMSCALE
 40
1.0
  9
$DIMASZ
 40
0.18
  9
$DIMEXO
 40
0.0625
  9
$DIMDLI
 40
0.38
  9
$DIMRND
 40
0.0
  9
$DIMDLE
 40
0.0
  9
$DIMEXE
 40
0.18
  9
$DIMTP
 40
0.0
  9
$DIMTM
 40
0.0
  9
$DIMTXT
 40
0.18
  9
$DIMCEN
 40
0.09
  9
$DIMTSZ
 40
0.0
  9
$DIMTOL
 70
     0
  9
$DIMLIM
 70
     0
  9
$DIMTIH
 70
     1
  9
$DIMTOH
 70
     1
  9
$DIMSE1
 70
     0
  9
$DIMSE2
 70
     0
  9
$DIMTAD
 70
     0
  9
$DIMZIN
 70
     0
  9
$DIMBLK
  1

  9
$DIMASO
 70
     1
  9
$DIMSHO
 70
     1
  9
$DIMPOST
  1

  9
$DIMAPOST
  1

  9
$DIMALT
 70
     0
  9
$DIMALTD
 70
     2
  9
$DIMALTF
 40
25.4
  9
$DIMLFAC
 40
1.0
  9
$DIMTOFL
 70
     0
  9
$DIMTVP
 40
0.0
  9
$DIMTIX
 70
     0
  9
$DIMSOXD
 70
     0
  9
$DIMSAH
 70
     0
  9
$DIMBLK1
  1

  9
$DIMBLK2
  1

  9
$DIMSTYLE
  2
Standard
  9
$DIMCLRD
 70
     0
  9
$DIMCLRE
 70
     0
  9
$DIMCLRT
 70
     0
  9
$DIMTFAC
 40
1.0
  9
$DIMGAP
 40
0.09
  9
$DIMJUST
 70
     0
  9
$DIMSD1
 70
     0
  9
$DIMSD2
 70
     0
  9
$DIMTOLJ
 70
     1
  9
$DIMTZIN
 70
     0
  9
$DIMALTZ
 70
     0
  9
$DIMALTTZ
 70
     0
  9
$DIMUPT
 70
     0
  9
$DIMDEC
 70
     4
  9
$DIMTDEC
 70
     4
  9
$DIMALTU
 70
     2
  9
$DIMALTTD
 70
     2
  9
$DIMTXSTY
  7
Standard
  9
$DIMAUNIT
 70
     0
  9
$DIMADEC
 70
     0
  9
$DIMALTRND
 40
0.0
  9
$DIMAZIN
 70
     0
  9
$DIMDSEP
 70
    46
  9
$DIMATFIT
 70
     3
  9
$DIMFRAC
 70
     0
  9
$DIMLDRBLK
  1

  9
$DIMLUNIT
 70
     2
  9
$DIMLWD
 70
    -2
  9
$DIMLWE
 70
    -2
  9
$DIMTMOVE
 70
     0
  9
$DIMFXL
 40
1.0
  9
$DIMFXLON
 70
     0
  9
$DIMJOGANG
 40
0.7853981633974483
  9
$DIMTFILL
 70
     0
  9
$DIMTFILLCLR
 70
     0
  9
$DIMARCSYM
 70
     0
  9
$DIMLTYPE
  6

  9
$DIMLTEX1
  6

  9
$DIMLTEX2
  6

  9
$DIMTXTDIRECTION
 70
     0
  9
$LUNITS
 70
     2
  9
$LUPREC
 70
     4
  9
$SKETCHINC
 40
0.1
  9
$FILLETRAD
 40
0.0
  9
$AUNITS
 70
     0
  9
$AUPREC
 70
     0
  9
$MENU
  1
.
  9
$ELEVATION
 40
0.0
  9
$PELEVATION
 40
0.0
  9
$THICKNESS
 40
0.0
  9
$LIMCHECK
 70
     0
  9
$CHAMFERA
 40
0.0
  9
$CHAMFERB
 40
0.0
  9
$CHAMFERC
 40
0.0
  9
$CHAMFERD
 40
0.0
  9
$SKPOLY
 70
     0
  9
$TDCREATE
 40
2457978.617144722
  9
$TDUCREATE
 40
2457978.533811389
  9
$TDUPDATE
 40
2457978.621615000
  9
$TDUUPDATE
 40
2457978.538281667
  9
$TDINDWG
 40
0.0035856019
  9
$TDUSRTIMER
 40
0.0035855671
  9
$USRTIMER
 70
     1
  9
$ANGBASE
 50
0.0
  9
$ANGDIR
 70
     0
  9
$PDMODE
 70
     0
  9
$PDSIZE
 40
0.0
  9
$PLINEWID
 40
0.0
  9
$SPLFRAME
 70
     0
  9
$SPLINETYPE
 70
     6
  9
$SPLINESEGS
 70
     8
  9
$HANDSEED
  5
57A
  9
$SURFTAB1
 70
     6
  9
$SURFTAB2
 70
     6
  9
$SURFTYPE
 70
     6
  9
$SURFU
 70
     6
  9
$SURFV
 70
     6
  9
$UCSBASE
  2

  9
$UCSNAME
  2

  9
$UCSORG
 10
0.0
 20
0.0
 30
0.0
  9
$UCSXDIR
 10
1.0
 20
0.0
 30
0.0
  9
$UCSYDIR
 10
0.0
 20
1.0
 30
0.0
  9
$UCSORTHOREF
  2

  9
$UCSORTHOVIEW
 70
     0
  9
$UCSORGTOP
 10
0.0
 20
0.0
 30
0.0
  9
$UCSORGBOTTOM
 10
0.0
 20
0.0
 30
0.0
  9
$UCSORGLEFT
 10
0.0
 20
0.0
 30
0.0
  9
$UCSORGRIGHT
 10
0.0
 20
0.0
 30
0.0
  9
$UCSORGFRONT
 10
0.0
 20
0.0
 30
0.0
  9
$UCSORGBACK
 10
0.0
 20
0.0
 30
0.0
  9
$PUCSBASE
  2

  9
$PUCSNAME
  2

  9
$PUCSORG
 10
0.0
 20
0.0
 30
0.0
  9
$PUCSXDIR
 10
1.0
 20
0.0
 30
0.0
  9
$PUCSYDIR
 10
0.0
 20
1.0
 30
0.0
  9
$PUCSORTHOREF
  2

  9
$PUCSORTHOVIEW
 70
     0
  9
$PUCSORGTOP
 10
0.0
 20
0.0
 30
0.0
  9
$PUCSORGBOTTOM
 10
0.0
 20
0.0
 30
0.0
  9
$PUCSORGLEFT
 10
0.0
 20
0.0
 30
0.0
  9
$PUCSORGRIGHT
 10
0.0
 20
0.0
 30
0.0
  9
$PUCSORGFRONT
 10
0.0
 20
0.0
 30
0.0
  9
$PUCSORGBACK
 10
0.0
 20
0.0
 30
0.0
  9
$USERI1
 70
     0
  9
$USERI2
 70
     0
  9
$USERI3
 70
     0
  9
$USERI4
 70
     0
  9
$USERI5
 70
     0
  9
$USERR1
 40
0.0
  9
$USERR2
 40
0.0
  9
$USERR3
 40
0.0
  9
$USERR4
 40
0.0
  9
$USERR5
 40
0.0
  9
$WORLDVIEW
 70
     1
  9
$SHADEDGE
 70
     3
  9
$SHADEDIF
 70
    70
  9
$TILEMODE
 70
     1
  9
$MAXACTVP
 70
    64
  9
$PINSBASE
 10
0.0
 20
0.0
 30
0.0
  9
$PLIMCHECK
 70
     0
  9
$PEXTMIN
 10
0.0
 20
0.0
 30
0.0
  9
$PEXTMAX
 10
0.0
 20
0.0
 30
0.0
  9
$PLIMMIN
 10
0.0
 20
0.0
  9
$PLIMMAX
 10
12.0
 20
9.0
  9
$UNITMODE
 70
     0
  9
$VISRETAIN
 70
     1
  9
$PLINEGEN
 70
     0
  9
$PSLTSCALE
 70
     1
  9
$TREEDEPTH
 70
  3020
  9
$CMLSTYLE
  2
Standard
  9
$CMLJUST
 70
     0
  9
$CMLSCALE
 40
1.0
  9
$PROXYGRAPHICS
 70
     1
  9
$MEASUREMENT
 70
     0
  9
$CELWEIGHT
370
    -1
  9
$ENDCAPS
280
     0
  9
$JOINSTYLE
280
     0
  9
$LWDISPLAY
290
     0
  9
$INSUNITS
 70
     4
  9
$HYPERLINKBASE
  1

  9
$STYLESHEET
  1

  9
$XEDIT
290
     1
  9
$CEPSNTYPE
380
     0
  9
$PSTYLEMODE
290
     1
  9
$FINGERPRINTGUID
  2
{B488E74A-4464-434A-A383-F8D16CAFE37B}
  9
$VERSIONGUID
  2
{0C2161B2-4E01-400C-8603-0D90D1C5DA94}
  9
$EXTNAMES
290
     1
  9
$PSVPSCALE
 40
0.0
  9
$OLESTARTUP
290
     0
  9
$SORTENTS
280
   127
  9
$INDEXCTL
280
     0
  9
$HIDETEXT
280
     1
  9
$XCLIPFRAME
280
     2
  9
$HALOGAP
280
     0
  9
$OBSCOLOR
 70
   257
  9
$OBSLTYPE
280
     0
  9
$INTERSECTIONDISPLAY
280
     0
  9
$INTERSECTIONCOLOR
 70
   257
  9
$DIMASSOC
280
     2
  9
$PROJECTNAME
  1

  9
$CAMERADISPLAY
290
     0
  9
$LENSLENGTH
 40
50.0
  9
$CAMERAHEIGHT
 40
0.0
  9
$STEPSPERSEC
 40
2.0
  9
$STEPSIZE
 40
6.0
  9
$3DDWFPREC
 40
2.0
  9
$PSOLWIDTH
 40
0.25
  9
$PSOLHEIGHT
 40
4.0
  9
$LOFTANG1
 40
1.570796326794896
  9
$LOFTANG2
 40
1.570796326794896
  9
$LOFTMAG1
 40
0.0
  9
$LOFTMAG2
 40
0.0
  9
$LOFTPARAM
 70
     7
  9
$LOFTNORMALS
280
     1
  9
$LATITUDE
 40
37.795
  9
$LONGITUDE
 40
-122.394
  9
$NORTHDIRECTION
 40
0.0
  9
$TIMEZONE
 70
 -8000
  9
$LIGHTGLYPHDISPLAY
280
     1
  9
$TILEMODELIGHTSYNCH
280
     1
  9
$CMATERIAL
347
96
  9
$SOLIDHIST
280
     0
  9
$SHOWHIST
280
     1
  9
$DWFFRAME
280
     2
  9
$DGNFRAME
280
     0
  9
$REALWORLDSCALE
290
     1
  9
$INTERFERECOLOR
 62
     1
  9
$INTERFEREOBJVS
345
A3
  9
$INTERFEREVPVS
346
A0
  9
$CSHADOW
280
     0
  9
$SHADOWPLANELOCATION
 40
0.0
  0
ENDSEC
  0
SECTION
  2
CLASSES
  0
CLASS
  1
ACDBDICTIONARYWDFLT
  2
AcDbDictionaryWithDefault
  3
ObjectDBX Classes
 90
        0
 91
        1
280
     0
281
     0
  0
CLASS
  1
DICTIONARYVAR
  2
AcDbDictionaryVar
  3
ObjectDBX Classes
 90
        0
 91
        9
280
     0
281
     0
  0
CLASS
  1
TABLESTYLE
  2
AcDbTableStyle
  3
ObjectDBX Classes
 90
     4095
 91
        1
280
     0
281
     0
  0
CLASS
  1
MATERIAL
  2
AcDbMaterial
  3
ObjectDBX Classes
 90
     1153
 91
        3
280
     0
281
     0
  0
CLASS
  1
VISUALSTYLE
  2
AcDbVisualStyle
  3
ObjectDBX Classes
 90
     4095
 91
       24
280
     0
281
     0
  0
CLASS
  1
SCALE
  2
AcDbScale
  3
ObjectDBX Classes
 90
     1153
 91
       33
280
     0
281
     0
  0
CLASS
  1
MLEADERSTYLE
  2
AcDbMLeaderStyle
  3
ACDB_MLEADERSTYLE_CLASS
 90
     4095
 91
        2
280
     0
281
     0
  0
CLASS
  1
CELLSTYLEMAP
  2
AcDbCellStyleMap
  3
ObjectDBX Classes
 90
     1152
 91
        1
280
     0
281
     0
  0
CLASS
  1
EXACXREFPANELOBJECT
  2
ExAcXREFPanelObject
  3
EXAC_ESW
 90
     1025
 91
        1
280
     0
281
     0
  0
CLASS
  1
NPOCOLLECTION
  2
AcDbImpNonPersistentObjectsCollection
  3
ObjectDBX Classes
 90
     1153
 91
        1
280
     0
281
     0
  0
CLASS
  1
LAYER_INDEX
  2
AcDbLayerIndex
  3
ObjectDBX Classes
 90
        0
 91
        0
280
     0
281
     0
  0
CLASS
  1
SPATIAL_INDEX
  2
AcDbSpatialIndex
  3
ObjectDBX Classes
 90
        0
 91
        0
280
     0
281
     0
  0
CLASS
  1
IDBUFFER
  2
AcDbIdBuffer
  3
ObjectDBX Classes
 90
        0
 91
        0
280
     0
281
     0
  0
CLASS
  1
ACDBSECTIONVIEWSTYLE
  2
AcDbSectionViewStyle
  3
ObjectDBX Classes
 90
     1025
 91
        2
280
     0
281
     0
  0
CLASS
  1
ACDBDETAILVIEWSTYLE
  2
AcDbDetailViewStyle
  3
ObjectDBX Classes
 90
     1025
 91
        2
280
     0
281
     0
  0
CLASS
  1
RAPIDRTRENDERSETTINGS
  2
AcDbRapidRTRenderSettings
  3
ObjectDBX Classes
 90
     1024
 91
        7
280
     0
281
     0
  0
ENDSEC
  0
SECTION
  2
TABLES
  0
TABLE
  2
VPORT
  5
8
330
0
100
AcDbSymbolTable
 70
     1
  0
VPORT
  5
94
330
8
100
AcDbSymbolTableRecord
100
AcDbViewportTableRecord
  2
*Active
 70
     0
 10
0.0
 20
0.0
 11
1.0
 21
1.0
 12
254.8469752939336
 22
130.3435217318606
 13
0.0
 23
0.0
 14
0.5
 24
0.5
 15
0.5
 25
0.5
 16
0.0
 26
0.0
 36
1.0
 17
0.0
 27
0.0
 37
0.0
 40
408.7633266417872
 41
3.88080808080808
 42
50.0
 43
0.0
 44
0.0
 50
0.0
 51
0.0
 71
     0
 72
  1000
 73
     1
 74
     3
 75
     0
 76
     1
 77
     0
 78
     0
281
     0
 65
     1
110
0.0
120
0.0
130
0.0
111
1.0
121
0.0
131
0.0
112
0.0
122
1.0
132
0.0
 79
     0
146
0.0
348
9F
 60
     3
 61
     5
292
     1
282
     1
141
0.0
142
0.0
 63
   250
421
  3355443
1001
ACAD_NAV_VCDISPLAY
1070
     3
  0
ENDTAB
  0
TABLE
  2
LTYPE
  5
5
330
0
100
AcDbSymbolTable
 70
     1
  0
LTYPE
  5
14
330
5
100
AcDbSymbolTableRecord
100
AcDbLinetypeTableRecord
  2
ByBlock
 70
     0
  3

 72
    65
 73
     0
 40
0.0
  0
LTYPE
  5
15
330
5
100
AcDbSymbolTableRecord
100
AcDbLinetypeTableRecord
  2
ByLayer
 70
     0
  3

 72
    65
 73
     0
 40
0.0
  0
LTYPE
  5
16
330
5
100
AcDbSymbolTableRecord
100
AcDbLinetypeTableRecord
  2
Continuous
 70
     0
  3
Solid line
 72
    65
 73
     0
 40
0.0
  0
ENDTAB
  0
TABLE
  2
LAYER
  5
2
102
{ACAD_XDICTIONARY
360
18E
102
}
330
0
100
AcDbSymbolTable
 70
     2
  0
LAYER
  5
10
102
{ACAD_XDICTIONARY
360
E6
102
}
330
2
100
AcDbSymbolTableRecord
100
AcDbLayerTableRecord
  2
0
 70
     0
 62
     7
  6
Continuous
370
    -3
390
F
347
98
348
0
  0
LAYER
  5
1F8
330
2
100
AcDbSymbolTableRecord
100
AcDbLayerTableRecord
  2
TITEL_ANSI
 70
     0
 62
     7
  6
Continuous
370
    -3
390
F
347
98
348
0
  0
ENDTAB
  0
TABLE
  2
STYLE
  5
3
330
0
100
AcDbSymbolTable
 70
     2
  0
STYLE
  5
11
330
3
100
AcDbSymbolTableRecord
100
AcDbTextStyleTableRecord
  2
Standard
 70
     0
 40
0.0
 41
1.0
 50
0.0
 71
     0
 42
0.2
  3
arial.ttf
  4

1001
ACAD
1000
Arial
1071
       34
  0
STYLE
  5
DC
330
3
100
AcDbSymbolTableRecord
100
AcDbTextStyleTableRecord
  2
Beschriftung
 70
     0
 40
0.0
 41
1.0
 50
0.0
 71
     0
 42
0.2
  3
arial.ttf
  4

1001
AcadAnnotative
1000
AnnotativeData
1002
{
1070
     1
1070
     1
1002
}
1001
ACAD
1000
Arial
1071
       34
  0
ENDTAB
  0
TABLE
  2
VIEW
  5
6
330
0
100
AcDbSymbolTable
 70
     0
  0
ENDTAB
  0
TABLE
  2
UCS
  5
7
330
0
100
AcDbSymbolTable
 70
     0
  0
ENDTAB
  0
TABLE
  2
APPID
  5
9
330
0
100
AcDbSymbolTable
 70
     7
  0
APPID
  5
12
330
9
100
AcDbSymbolTableRecord
100
AcDbRegAppTableRecord
  2
ACAD
 70
     0
  0
APPID
  5
DD
330
9
100
AcDbSymbolTableRecord
100
AcDbRegAppTableRecord
  2
AcadAnnoPO
 70
     0
  0
APPID
  5
DE
330
9
100
AcDbSymbolTableRecord
100
AcDbRegAppTableRecord
  2
AcadAnnotative
 70
     0
  0
APPID
  5
DF
330
9
100
AcDbSymbolTableRecord
100
AcDbRegAppTableRecord
  2
ACAD_DSTYLE_DIMJAG
 70
     0
  0
APPID
  5
E0
330
9
100
AcDbSymbolTableRecord
100
AcDbRegAppTableRecord
  2
ACAD_DSTYLE_DIMTALN
 70
     0
  0
APPID
  5
107
330
9
100
AcDbSymbolTableRecord
100
AcDbRegAppTableRecord
  2
ACAD_MLEADERVER
 70
     0
  0
APPID
  5
1A6
330
9
100
AcDbSymbolTableRecord
100
AcDbRegAppTableRecord
  2
ACAD_NAV_VCDISPLAY
 70
     0
  0
ENDTAB
  0
TABLE
  2
DIMSTYLE
  5
A
330
0
100
AcDbSymbolTable
 70
     2
100
AcDbDimStyleTable
 71
     2
340
27
340
E1
  0
DIMSTYLE
105
27
330
A
100
AcDbSymbolTableRecord
100
AcDbDimStyleTableRecord
  2
Standard
 70
     0
340
11
  0
DIMSTYLE
105
E1
330
A
100
AcDbSymbolTableRecord
100
AcDbDimStyleTableRecord
  2
Beschriftung
 70
     0
 40
0.0
340
11
1001
AcadAnnotative
1000
AnnotativeData
1002
{
1070
     1
1070
     1
1002
}
1001
ACAD_DSTYLE_DIMJAG
1070
   388
1040
1.5
1001
ACAD_DSTYLE_DIMTALN
1070
   392
1070
     0
  0
ENDTAB
  0
TABLE
  2
BLOCK_RECORD
  5
1
330
0
100
AcDbSymbolTable
 70
     1
  0
BLOCK_RECORD
  5
1F
102
{ACAD_XDICTIONARY
360
15D
102
}
330
1
100
AcDbSymbolTableRecord
100
AcDbBlockTableRecord
  2
*Model_Space
340
22
 70
     0
280
     1
281
     0
  0
BLOCK_RECORD
  5
58
330
1
100
AcDbSymbolTableRecord
100
AcDbBlockTableRecord
  2
*Paper_Space
340
59
 70
     0
280
     1
281
     0
  0
BLOCK_RECORD
  5
5D
330
1
100
AcDbSymbolTableRecord
100
AcDbBlockTableRecord
  2
*Paper_Space0
340
5E
 70
     0
280
     1
281
     0
  0
ENDTAB
  0
ENDSEC
  0
SECTION
  2
BLOCKS
  0
BLOCK
  5
20
330
1F
100
AcDbEntity
  8
0
100
AcDbBlockBegin
  2
*Model_Space
 70
     0
 10
0.0
 20
0.0
 30
0.0
  3
*Model_Space
  1

  0
ENDBLK
  5
21
330
1F
100
AcDbEntity
  8
0
100
AcDbBlockEnd
  0
BLOCK
  5
5A
330
58
100
AcDbEntity
 67
     1
  8
0
100
AcDbBlockBegin
  2
*Paper_Space
 70
     0
 10
0.0
 20
0.0
 30
0.0
  3
*Paper_Space
  1

  0
ENDBLK
  5
5B
330
58
100
AcDbEntity
 67
     1
  8
0
100
AcDbBlockEnd
  0
BLOCK
  5
5F
330
5D
100
AcDbEntity
 67
     1
  8
0
100
AcDbBlockBegin
  2
*Paper_Space0
 70
     0
 10
0.0
 20
0.0
 30
0.0
  3
*Paper_Space0
  1

  0
ENDBLK
  5
60
330
5D
100
AcDbEntity
 67
     1
  8
0
100
AcDbBlockEnd
  0
ENDSEC
  0
SECTION
  2
ENTITIES
  0
ARC
  5
342
330
1F
100
AcDbEntity
  8
TITEL_ANSI
100
AcDbCircle
 10
26.34097892116137
 20
91.88865325503469
 30
0.0
 40
17.0
100
AcDbArc
 50
77.65608198917693
 51
301.8033774702837
  0
LINE
  5
343
330
1F
100
AcDbEntity
  8
TITEL_ANSI
100
AcDbLine
 10
60.44873670590208
 20
93.03588634825068
 30
0.0
 11
35.30007911977127
 21
77.44100556998688
 31
0.0
  0
ARC
  5
344
330
1F
100
AcDbEntity
  8
TITEL_ANSI
100
AcDbCircle
 10
57.81370723572267
 20
97.2851944909118
 30
0.0
 40
5.0
100
AcDbArc
 50
301.8033774702837
 51
77.65608198917693
  0
LINE
  5
345
330
1F
100
AcDbEntity
  8
TITEL_ANSI
100
AcDbLine
 10
29.97522604575387
 20
108.4956471984729
 30
0.0
 11
58.88260344883817
 21
102.1696044742758
 31
0.0
  0
ARC
  5
346
330
1F
100
AcDbEntity
  8
TITEL_ANSI
100
AcDbCircle
 10
82.61823086813606
 20
52.08596207245038
 30
0.0
 40
17.0
100
AcDbArc
 50
167.6560819891769
 51
31.80337747028365
  0
LINE
  5
347
330
1F
100
AcDbEntity
  8
TITEL_ANSI
100
AcDbLine
 10
81.47099777492007
 20
86.19371985719109
 30
0.0
 11
97.06587855318389
 21
61.04506227106028
 31
0.0
  0
ARC
  5
348
330
1F
100
AcDbEntity
  8
TITEL_ANSI
100
AcDbCircle
 10
77.22168963225897
 20
83.55869038701168
 30
0.0
 40
5.0
100
AcDbArc
 50
31.80337747028365
 51
167.6560819891769
  0
LINE
  5
349
330
1F
100
AcDbEntity
  8
TITEL_ANSI
100
AcDbLine
 10
66.01123692469787
 20
55.72020919704289
 30
0.0
 11
72.33727964889478
 21
84.62758660012719
 31
0.0
  0
ARC
  5
34A
330
1F
100
AcDbEntity
  8
TITEL_ANSI
100
AcDbCircle
 10
122.4209220507203
 20
108.363214019425
 30
0.0
 40
17.0
100
AcDbArc
 50
257.6560819891769
 51
121.8033774702837
  0
LINE
  5
34B
330
1F
100
AcDbEntity
  8
TITEL_ANSI
100
AcDbLine
 10
88.31316426597968
 20
107.2159809262091
 30
0.0
 11
113.4618218521104
 21
122.8108617044728
 31
0.0
  0
ARC
  5
34C
330
1F
100
AcDbEntity
  8
TITEL_ANSI
100
AcDbCircle
 10
90.94819373615907
 20
102.966672783548
 30
0.0
 40
5.0
100
AcDbArc
 50
121.8033774702837
 51
257.6560819891769
  0
LINE
  5
34D
330
1F
100
AcDbEntity
  8
TITEL_ANSI
100
AcDbLine
 10
118.7866749261279
 20
91.75622007598688
 30
0.0
 11
89.87929752304358
 21
98.08226280018379
 31
0.0
  0
ARC
  5
34E
330
1F
100
AcDbEntity
  8
TITEL_ANSI
100
AcDbCircle
 10
102.5257033306202
 20
139.9199601154795
 30
0.0
 40
17.0
100
AcDbArc
 50
302.6560819891768
 51
166.8033774702839
  0
LINE
  5
34F
330
1F
100
AcDbEntity
  8
TITEL_ANSI
100
AcDbLine
 10
79.21909280977647
 20
114.9909169950064
 30
0.0
 11
85.97463317656197
 21
143.800949262004
 31
0.0
  0
ARC
  5
350
330
1F
100
AcDbEntity
  8
TITEL_ANSI
100
AcDbCircle
 10
84.08705461979357
 20
113.8494495989698
 30
0.0
 40
5.0
100
AcDbArc
 50
166.8033774702839
 51
302.6560819891768
  0
LINE
  5
351
330
1F
100
AcDbEntity
  8
TITEL_ANSI
100
AcDbLine
 10
111.6988205768423
 20
125.6072412966434
 30
0.0
 11
86.78503028044707
 21
109.6398264169592
 31
0.0
  0
ARC
  5
352
330
1F
100
AcDbEntity
  8
TITEL_ANSI
100
AcDbCircle
 10
114.1749769641904
 20
71.98118079255049
 30
0.0
 40
17.0
100
AcDbArc
 50
212.6560819891767
 51
76.80337747028393
  0
LINE
  5
353
330
1F
100
AcDbEntity
  8
TITEL_ANSI
100
AcDbLine
 10
89.24593384371746
 20
95.2877913133943
 30
0.0
 11
118.055966110715
 21
88.53225094660878
 31
0.0
  0
ARC
  5
354
330
1F
100
AcDbEntity
  8
TITEL_ANSI
100
AcDbCircle
 10
88.10446644768077
 20
90.41982950337718
 30
0.0
 40
5.0
100
AcDbArc
 50
76.80337747028393
 51
212.6560819891767
  0
LINE
  5
355
330
1F
100
AcDbEntity
  8
TITEL_ANSI
100
AcDbLine
 10
99.86225814535448
 20
62.80806354632849
 30
0.0
 11
83.89484326567018
 21
87.72185384272368
 31
0.0
  0
ARC
  5
356
330
1F
100
AcDbEntity
  8
TITEL_ANSI
100
AcDbCircle
 10
46.23619764126137
 20
60.33190715898029
 30
0.0
 40
17.0
100
AcDbArc
 50
122.6560819891767
 51
346.8033774702839
  0
LINE
  5
357
330
1F
100
AcDbEntity
  8
TITEL_ANSI
100
AcDbLine
 10
69.54280816210527
 20
85.26095027945329
 30
0.0
 11
62.78726779531976
 21
56.4509180124557
 31
0.0
  0
ARC
  5
358
330
1F
100
AcDbEntity
  8
TITEL_ANSI
100
AcDbCircle
 10
64.67484635208816
 20
86.40241767548998
 30
0.0
 40
5.0
100
AcDbArc
 50
346.8033774702839
 51
122.6560819891767
  0
LINE
  5
359
330
1F
100
AcDbEntity
  8
TITEL_ANSI
100
AcDbLine
 10
37.06308039503948
 20
74.64462597781639
 30
0.0
 11
61.97687069143467
 21
90.61204085750059
 31
0.0
  0
ARC
  5
35A
330
1F
100
AcDbEntity
  8
TITEL_ANSI
100
AcDbCircle
 10
34.58692400769117
 20
128.2706864819093
 30
0.0
 40
17.0
100
AcDbArc
 50
32.65608198917675
 51
256.8033774702839
  0
LINE
  5
35B
330
1F
100
AcDbEntity
  8
TITEL_ANSI
100
AcDbLine
 10
59.51596712816428
 20
104.9640759610655
 30
0.0
 11
30.70593486116667
 21
111.719616327851
 31
0.0
  0
ARC
  5
35C
330
1F
100
AcDbEntity
  8
TITEL_ANSI
100
AcDbCircle
 10
60.65743452420097
 20
109.8320377710826
 30
0.0
 40
5.0
100
AcDbArc
 50
256.8033774702839
 51
32.65608198917675
  0
LINE
  5
35D
330
1F
100
AcDbEntity
  8
TITEL_ANSI
100
AcDbLine
 10
48.89964282652726
 20
137.4438037281311
 30
0.0
 11
64.86705770621156
 21
112.5300134317361
 31
0.0
  0
CIRCLE
  5
35E
330
1F
100
AcDbEntity
  8
TITEL_ANSI
100
AcDbCircle
 10
74.38095048594087
 20
100.1259336372299
 30
0.0
 40
5.0
  0
ARC
  5
35F
330
1F
100
AcDbEntity
  8
TITEL_ANSI
100
AcDbCircle
 10
66.14367010374578
 20
148.1659052020093
 30
0.0
 40
17.0
100
AcDbArc
 50
347.6560819891768
 51
211.8033774702837
  0
LINE
  5
360
330
1F
100
AcDbEntity
  8
TITEL_ANSI
100
AcDbLine
 10
67.29090319696168
 20
114.0581474172686
 30
0.0
 11
51.69602241869788
 21
139.2068050033994
 31
0.0
  0
ARC
  5
361
330
1F
100
AcDbEntity
  8
TITEL_ANSI
100
AcDbCircle
 10
71.54021133962277
 20
116.6931768874479
 30
0.0
 40
5.0
100
AcDbArc
 50
211.8033774702829
 51
347.6560819891768
  0
LINE
  5
362
330
1F
100
AcDbEntity
  8
TITEL_ANSI
100
AcDbLine
 10
82.75066404718387
 20
144.5316580774168
 30
0.0
 11
76.42462132298686
 21
115.6242806743326
 31
0.0
  0
ARC
  5
363
330
1F
100
AcDbEntity
  8
TITEL_ANSI
100
AcDbCircle
 10
74.38095048595546
 20
100.1259336371156
 30
0.0
 40
71.5405000001152
100
AcDbArc
 50
96.68918918919015
 51
97.90540540540385
  0
ARC
  5
364
330
1F
100
AcDbEntity
  8
TITEL_ANSI
100
AcDbCircle
 10
40.25458423794077
 20
160.8557632280506
 30
0.0
 40
26.315069572249
100
AcDbArc
 50
22.64252037804082
 51
32.97531474048549
  0
ARC
  5
365
330
1F
100
AcDbEntity
  8
TITEL_ANSI
100
AcDbCircle
 10
92.10357473470557
 20
167.4952862032137
 30
0.0
 40
26.3150695722489
100
AcDbArc
 50
161.6192798541085
 51
171.9520742165539
  0
ARC
  5
366
330
1F
100
AcDbEntity
  8
TITEL_ANSI
100
AcDbCircle
 10
74.38095048593957
 20
100.1259336372356
 30
0.0
 40
71.5404999999941
100
AcDbArc
 50
101.5540540540544
 51
102.7702702702704
  0
ARC
  5
367
330
1F
100
AcDbEntity
  8
TITEL_ANSI
100
AcDbCircle
 10
35.22727552166157
 20
157.7428652824878
 30
0.0
 40
26.3150695722489
100
AcDbArc
 50
27.50738524290543
 51
37.84017960535063
  0
ARC
  5
368
330
1F
100
AcDbEntity
  8
TITEL_ANSI
100
AcDbCircle
 10
86.32640855211898
 20
168.7555708722607
 30
0.0
 40
26.3150695722497
100
AcDbArc
 50
166.4841447189739
 51
176.8169390814177
  0
ARC
  5
369
330
1F
100
AcDbEntity
  8
TITEL_ANSI
100
AcDbCircle
 10
74.38095048593777
 20
100.1259336372393
 30
0.0
 40
71.54049999999009
100
AcDbArc
 50
106.418918918919
 51
107.6351351351353
  0
ARC
  5
36A
330
1F
100
AcDbEntity
  8
TITEL_ANSI
100
AcDbCircle
 10
30.48206993070357
 20
154.2148360241315
 30
0.0
 40
26.3150695722497
100
AcDbArc
 50
32.37225010777048
 51
42.705044470215
  0
ARC
  5
36B
330
1F
100
AcDbEntity
  8
TITEL_ANSI
100
AcDbCircle
 10
80.46317507043458
 20
169.521377432385
 30
0.0
 40
26.3150695722492
100
AcDbArc
 50
171.349009583839
 51
181.6818039462829
  0
ARC
  5
36C
330
1F
100
AcDbEntity
  8
TITEL_ANSI
100
AcDbCircle
 10
74.38095048595148
 20
100.1259336372035
 30
0.0
 40
71.54050000002841
100
AcDbArc
 50
111.2837837837838
 51
112.4999999999996
  0
ARC
  5
36D
330
1F
100
AcDbEntity
  8
TITEL_ANSI
100
AcDbCircle
 10
26.05315678008827
 20
150.2970949846345
 30
0.0
 40
26.3150695722485
100
AcDbArc
 50
37.2371149726354
 51
47.56990933508012
  0
ARC
  5
36E
330
1F
100
AcDbEntity
  8
TITEL_ANSI
100
AcDbCircle
 10
74.55611902124598
 20
169.7871882297722
 30
0.0
 40
26.3150695722494
100
AcDbArc
 50
176.2138744487044
 51
186.546668811148
  0
ARC
  5
36F
330
1F
100
AcDbEntity
  8
TITEL_ANSI
100
AcDbCircle
 10
74.38095048592217
 20
100.1259336372672
 30
0.0
 40
71.5404999999583
100
AcDbArc
 50
116.1486486486483
 51
117.3648648648647
  0
ARC
  5
370
330
1F
100
AcDbEntity
  8
TITEL_ANSI
100
AcDbCircle
 10
21.97244649055198
 20
146.0178695779598
 30
0.0
 40
26.3150695722477
100
AcDbArc
 50
42.10197983749974
 51
52.43477419994523
  0
ARC
  5
371
330
1F
100
AcDbEntity
  8
TITEL_ANSI
100
AcDbCircle
 10
68.64780087874567
 20
169.5510880915361
 30
0.0
 40
26.3150695722489
100
AcDbArc
 50
181.0787393135676
 51
191.4115336760126
  0
ARC
  5
372
330
1F
100
AcDbEntity
  8
TITEL_ANSI
100
AcDbCircle
 10
74.38095048595667
 20
100.1259336372046
 30
0.0
 40
71.54050000002979
100
AcDbArc
 50
121.013513513514
 51
122.2297297297287
  0
ARC
  5
373
330
1F
100
AcDbEntity
  8
TITEL_ANSI
100
AcDbCircle
 10
18.26934067323837
 20
141.4079917212182
 30
0.0
 40
26.3150695722503
100
AcDbArc
 50
46.96684470236524
 51
57.29963906481016
  0
ARC
  5
374
330
1F
100
AcDbEntity
  8
TITEL_ANSI
100
AcDbCircle
 10
62.78079021054097
 20
168.8147781245831
 30
0.0
 40
26.3150695722494
100
AcDbArc
 50
185.9436041784334
 51
196.2763985408775
  0
ARC
  5
375
330
1F
100
AcDbEntity
  8
TITEL_ANSI
100
AcDbCircle
 10
74.38095048599887
 20
100.1259336371518
 30
0.0
 40
71.5405000000972
100
AcDbArc
 50
125.878378378379
 51
127.0945945945939
  0
ARC
  5
376
330
1F
100
AcDbEntity
  8
TITEL_ANSI
100
AcDbCircle
 10
14.97052029042337
 20
136.5006756900098
 30
0.0
 40
26.315069572247
100
AcDbArc
 50
51.83170956722939
 51
62.16450392967533
  0
ARC
  5
377
330
1F
100
AcDbEntity
  8
TITEL_ANSI
100
AcDbCircle
 10
56.99735896293558
 20
167.5835634590968
 30
0.0
 40
26.3150695722477
100
AcDbArc
 50
190.8084690432982
 51
201.1412634057429
  0
ARC
  5
378
330
1F
100
AcDbEntity
  8
TITEL_ANSI
100
AcDbCircle
 10
74.38095048590357
 20
100.1259336372721
 30
0.0
 40
71.54049999994359
100
AcDbArc
 50
130.743243243243
 51
131.9594594594592
  0
ARC
  5
379
330
1F
100
AcDbEntity
  8
TITEL_ANSI
100
AcDbCircle
 10
12.09975341855067
 20
131.3312788087811
 30
0.0
 40
26.3150695722499
100
AcDbArc
 50
56.69657443209529
 51
67.02936879453921
  0
ARC
  5
37A
330
1F
100
AcDbEntity
  8
TITEL_ANSI
100
AcDbCircle
 10
51.33917689060067
 20
165.8663150249571
 30
0.0
 40
26.3150695722493
100
AcDbArc
 50
195.6733339081629
 51
206.0061282706076
  0
ARC
  5
37B
330
1F
100
AcDbEntity
  8
TITEL_ANSI
100
AcDbCircle
 10
74.38095048594037
 20
100.1259336372301
 30
0.0
 40
71.54049999999941
100
AcDbArc
 50
135.6081081081077
 51
136.8243243243242
  0
ARC
  5
37C
330
1F
100
AcDbEntity
  8
TITEL_ANSI
100
AcDbCircle
 10
9.677723998720267
 20
125.9370467005248
 30
0.0
 40
26.31506957225
100
AcDbArc
 50
61.56143929695993
 51
71.8942336594042
  0
ARC
  5
37D
330
1F
100
AcDbEntity
  8
TITEL_ANSI
100
AcDbCircle
 10
45.84701132501908
 20
163.6754056364807
 30
0.0
 40
26.3150695722487
100
AcDbArc
 50
200.5381987730276
 51
210.8709931354732
  0
ARC
  5
37E
330
1F
100
AcDbEntity
  8
TITEL_ANSI
100
AcDbCircle
 10
74.38095048591347
 20
100.1259336372519
 30
0.0
 40
71.54049999996491
100
AcDbArc
 50
140.4729729729729
 51
141.6891891891889
  0
ARC
  5
37F
330
1F
100
AcDbEntity
  8
TITEL_ANSI
100
AcDbCircle
 10
7.721882808400877
 20
120.3568449311858
 30
0.0
 40
26.3150695722514
100
AcDbArc
 50
66.42630416182516
 51
76.75909852426858
  0
ARC
  5
380
330
1F
100
AcDbEntity
  8
TITEL_ANSI
100
AcDbCircle
 10
40.56043344494777
 20
161.0266208460181
 30
0.0
 40
26.3150695722506
100
AcDbArc
 50
205.4030636378931
 51
215.7358580003367
  0
ARC
  5
381
330
1F
100
AcDbEntity
  8
TITEL_ANSI
100
AcDbCircle
 10
74.38095048606268
 20
100.125933637148
 30
0.0
 40
71.54050000014679
100
AcDbArc
 50
145.337837837839
 51
146.5540540540529
  0
ARC
  5
382
330
1F
100
AcDbEntity
  8
TITEL_ANSI
100
AcDbCircle
 10
6.246321728188377
 20
114.6308789823874
 30
0.0
 40
26.31506957224881
100
AcDbArc
 50
71.29116902668946
 51
81.62396338913387
  0
ARC
  5
383
330
1F
100
AcDbEntity
  8
TITEL_ANSI
100
AcDbCircle
 10
35.51753316514977
 20
157.9390452086788
 30
0.0
 40
26.3150695722497
100
AcDbArc
 50
210.2679285027579
 51
220.6007228652019
  0
ARC
  5
384
330
1F
100
AcDbEntity
  8
TITEL_ANSI
100
AcDbCircle
 10
74.38095048596228
 20
100.1259336372181
 30
0.0
 40
71.54050000002449
100
AcDbArc
 50
150.202702702703
 51
151.4189189189177
  0
ARC
  5
385
330
1F
100
AcDbEntity
  8
TITEL_ANSI
100
AcDbCircle
 10
5.261672209476074
 20
108.8004045699941
 30
0.0
 40
26.3150695722493
100
AcDbArc
 50
76.15603389155443
 51
86.48882825399878
  0
ARC
  5
386
330
1F
100
AcDbEntity
  8
TITEL_ANSI
100
AcDbCircle
 10
30.75464469770117
 20
154.4349247776824
 30
0.0
 40
26.31506957224861
100
AcDbArc
 50
215.1327933676214
 51
225.4655877300668
  0
ARC
  5
387
330
1F
100
AcDbEntity
  8
TITEL_ANSI
100
AcDbCircle
 10
74.38095048605187
 20
100.1259336371798
 30
0.0
 40
71.5405000001218
100
AcDbArc
 50
155.0675675675695
 51
156.2837837837834
  0
ARC
  5
388
330
1F
100
AcDbEntity
  8
TITEL_ANSI
100
AcDbCircle
 10
4.775028674610268
 20
102.907430395756
 30
0.0
 40
26.31506957224911
100
AcDbArc
 50
81.02089875641947
 51
91.35369311886355
  0
ARC
  5
389
330
1F
100
AcDbEntity
  8
TITEL_ANSI
100
AcDbCircle
 10
26.30608476315367
 20
150.5395068210337
 30
0.0
 40
26.3150695722506
100
AcDbArc
 50
219.9976582324878
 51
230.3304525949319
  0
ARC
  5
38A
330
1F
100
AcDbEntity
  8
TITEL_ANSI
100
AcDbCircle
 10
74.38095048594558
 20
100.1259336372282
 30
0.0
 40
71.54050000000499
100
AcDbArc
 50
159.9324324324332
 51
161.1486486486479
  0
ARC
  5
38B
330
1F
100
AcDbEntity
  8
TITEL_ANSI
100
AcDbCircle
 10
4.789897401411167
 20
96.9944154736344
 30
0.0
 40
26.3150695722492
100
AcDbArc
 50
85.88576362128417
 51
96.2185579837287
  0
ARC
  5
38C
330
1F
100
AcDbEntity
  8
TITEL_ANSI
100
AcDbCircle
 10
22.20390533776978
 20
146.2808579143693
 30
0.0
 40
26.3150695722497
100
AcDbArc
 50
224.8625230973522
 51
235.1953174597968
  0
ARC
  5
38D
330
1F
100
AcDbEntity
  8
TITEL_ANSI
100
AcDbCircle
 10
74.38095048601687
 20
100.12593363721
 30
0.0
 40
71.5405000000786
100
AcDbArc
 50
164.7972972972979
 51
166.0135135135128
  0
ARC
  5
38E
330
1F
100
AcDbEntity
  8
TITEL_ANSI
100
AcDbCircle
 10
5.306171260361466
 20
91.1039632116398
 30
0.0
 40
26.3150695722496
100
AcDbArc
 50
90.75062848614928
 51
101.0834228485937
  0
ARC
  5
38F
330
1F
100
AcDbEntity
  8
TITEL_ANSI
100
AcDbCircle
 10
18.47766271831357
 20
141.6896617206516
 30
0.0
 40
26.3150695722504
100
AcDbArc
 50
229.727387962217
 51
240.0601823246623
  0
ARC
  5
390
330
1F
100
AcDbEntity
  8
TITEL_ANSI
100
AcDbCircle
 10
74.38095048606307
 20
100.1259336372092
 30
0.0
 40
71.54050000012391
100
AcDbArc
 50
169.6621621621628
 51
170.878378378377
  0
ARC
  5
391
330
1F
100
AcDbEntity
  8
TITEL_ANSI
100
AcDbCircle
 10
6.32013048647677
 20
85.27851445330069
 30
0.0
 40
26.315069572249
100
AcDbArc
 50
95.61549335101373
 51
105.9482877134582
  0
ARC
  5
392
330
1F
100
AcDbEntity
  8
TITEL_ANSI
100
AcDbCircle
 10
15.15420456824316
 20
136.7989979136608
 30
0.0
 40
26.3150695722494
100
AcDbArc
 50
234.592252827082
 51
244.9250471895272
  0
ARC
  5
393
330
1F
100
AcDbEntity
  8
TITEL_ANSI
100
AcDbCircle
 10
74.38095048584377
 20
100.1259336372382
 30
0.0
 40
71.5404999999026
100
AcDbArc
 50
174.5270270270263
 51
175.7432432432443
  0
ARC
  5
394
330
1F
100
AcDbEntity
  8
TITEL_ANSI
100
AcDbCircle
 10
7.82446948029856
 20
79.56004169040818
 30
0.0
 40
26.3150695722498
100
AcDbArc
 50
100.4803582158786
 51
110.8131525783226
  0
ARC
  5
395
330
1F
100
AcDbEntity
  8
TITEL_ANSI
100
AcDbCircle
 10
12.25747647968847
 20
131.6441038381988
 30
0.0
 40
26.3150695722504
100
AcDbArc
 50
239.4571176919466
 51
249.789912054391
  0
ARC
  5
396
330
1F
100
AcDbEntity
  8
TITEL_ANSI
100
AcDbCircle
 10
74.38095048594587
 20
100.1259336372299
 30
0.0
 40
71.54050000000499
100
AcDbArc
 50
179.3918918918916
 51
180.6081081081092
  0
ARC
  5
397
330
1F
100
AcDbEntity
  8
TITEL_ANSI
100
AcDbCircle
 10
9.808349444904266
 20
73.98974665025939
 30
0.0
 40
26.31506957225
100
AcDbArc
 50
105.3452230807436
 51
115.678017443188
  0
ARC
  5
398
330
1F
100
AcDbEntity
  8
TITEL_ANSI
100
AcDbCircle
 10
9.80834944490418
 20
126.2621206241998
 30
0.0
 40
26.3150695722495
100
AcDbArc
 50
244.321982556812
 51
254.6547769192561
  0
ARC
  5
399
330
1F
100
AcDbEntity
  8
TITEL_ANSI
100
AcDbCircle
 10
74.38095048599857
 20
100.1259336372348
 30
0.0
 40
71.5405000000579
100
AcDbArc
 50
184.2567567567572
 51
185.4729729729728
  0
ARC
  5
39A
330
1F
100
AcDbEntity
  8
TITEL_ANSI
100
AcDbCircle
 10
12.25747647968777
 20
68.60776343626248
 30
0.0
 40
26.3150695722487
100
AcDbArc
 50
110.2100879456083
 51
120.5428823080527
  0
ARC
  5
39B
330
1F
100
AcDbEntity
  8
TITEL_ANSI
100
AcDbCircle
 10
7.824469480298375
 20
120.6918255840505
 30
0.0
 40
26.3150695722487
100
AcDbArc
 50
249.1868474216773
 51
259.5196417841214
  0
ARC
  5
39C
330
1F
100
AcDbEntity
  8
TITEL_ANSI
100
AcDbCircle
 10
74.38095048590657
 20
100.1259336372237
 30
0.0
 40
71.5404999999652
100
AcDbArc
 50
189.1216216216205
 51
190.3378378378372
  0
ARC
  5
39D
330
1F
100
AcDbEntity
  8
TITEL_ANSI
100
AcDbCircle
 10
15.15420456824327
 20
63.45286936079879
 30
0.0
 40
26.3150695722495
100
AcDbArc
 50
115.0749528104728
 51
125.407747172918
  0
ARC
  5
39E
330
1F
100
AcDbEntity
  8
TITEL_ANSI
100
AcDbCircle
 10
6.32013048647687
 20
114.9733528211597
 30
0.0
 40
26.3150695722497
100
AcDbArc
 50
254.0517122865417
 51
264.3845066489863
  0
ARC
  5
39F
330
1F
100
AcDbEntity
  8
TITEL_ANSI
100
AcDbCircle
 10
74.38095048601716
 20
100.1259336372497
 30
0.0
 40
71.54050000007879
100
AcDbArc
 50
193.9864864864872
 51
195.202702702701
  0
ARC
  5
3A0
330
1F
100
AcDbEntity
  8
TITEL_ANSI
100
AcDbCircle
 10
18.47766271831317
 20
58.56220555380889
 30
0.0
 40
26.3150695722495
100
AcDbArc
 50
119.9398176753377
 51
130.2726120377829
  0
ARC
  5
3A1
330
1F
100
AcDbEntity
  8
TITEL_ANSI
100
AcDbCircle
 10
5.306171260361381
 20
109.1479040628192
 30
0.0
 40
26.315069572249
100
AcDbArc
 50
258.9165771514063
 51
269.2493715138507
  0
ARC
  5
3A2
330
1F
100
AcDbEntity
  8
TITEL_ANSI
100
AcDbCircle
 10
74.38095048594537
 20
100.1259336372314
 30
0.0
 40
71.5405000000047
100
AcDbArc
 50
198.8513513513512
 51
200.0675675675667
  0
ARC
  5
3A3
330
1F
100
AcDbEntity
  8
TITEL_ANSI
100
AcDbCircle
 10
22.20390533776797
 20
53.97100936009259
 30
0.0
 40
26.3150695722469
100
AcDbArc
 50
124.804682540203
 51
135.1374769026478
  0
ARC
  5
3A4
330
1F
100
AcDbEntity
  8
TITEL_ANSI
100
AcDbCircle
 10
4.789897401411167
 20
103.2574518008255
 30
0.0
 40
26.3150695722494
100
AcDbArc
 50
263.7814420162713
 51
274.1142363787158
  0
ARC
  5
3A5
330
1F
100
AcDbEntity
  8
TITEL_ANSI
100
AcDbCircle
 10
74.38095048597228
 20
100.1259336372443
 30
0.0
 40
71.5405000000345
100
AcDbArc
 50
203.7162162162165
 51
204.9324324324324
  0
ARC
  5
3A6
330
1F
100
AcDbEntity
  8
TITEL_ANSI
100
AcDbCircle
 10
26.30608476315198
 20
49.71236045342778
 30
0.0
 40
26.3150695722481
100
AcDbArc
 50
129.6695474050679
 51
140.0023417675128
  0
ARC
  5
3A7
330
1F
100
AcDbEntity
  8
TITEL_ANSI
100
AcDbCircle
 10
4.775028674610382
 20
97.34443687870289
 30
0.0
 40
26.3150695722482
100
AcDbArc
 50
268.6463068811356
 51
278.9791012435813
  0
ARC
  5
3A8
330
1F
100
AcDbEntity
  8
TITEL_ANSI
100
AcDbCircle
 10
74.38095048590297
 20
100.1259336372089
 30
0.0
 40
71.5404999999567
100
AcDbArc
 50
208.5810810810812
 51
209.7972972972969
  0
ARC
  5
3A9
330
1F
100
AcDbEntity
  8
TITEL_ANSI
100
AcDbCircle
 10
30.75464469770038
 20
45.81694249677798
 30
0.0
 40
26.3150695722475
100
AcDbArc
 50
134.534412269932
 51
144.8672066323779
  0
ARC
  5
3AA
330
1F
100
AcDbEntity
  8
TITEL_ANSI
100
AcDbCircle
 10
5.261672209476074
 20
91.45146270446518
 30
0.0
 40
26.3150695722489
100
AcDbArc
 50
273.5111717460012
 51
283.8439661084464
  0
ARC
  5
3AB
330
1F
100
AcDbEntity
  8
TITEL_ANSI
100
AcDbCircle
 10
74.38095048593597
 20
100.1259336372265
 30
0.0
 40
71.5404999999941
100
AcDbArc
 50
213.4459459459459
 51
214.662162162162
  0
ARC
  5
3AC
330
1F
100
AcDbEntity
  8
TITEL_ANSI
100
AcDbCircle
 10
35.51753316514957
 20
42.31282206578128
 30
0.0
 40
26.3150695722492
100
AcDbArc
 50
139.3992771347981
 51
149.7320714972421
  0
ARC
  5
3AD
330
1F
100
AcDbEntity
  8
TITEL_ANSI
100
AcDbCircle
 10
6.246321728188476
 20
85.62098829207208
 30
0.0
 40
26.31506957224861
100
AcDbArc
 50
278.3760366108661
 51
288.7088309733114
  0
ARC
  5
3AE
330
1F
100
AcDbEntity
  8
TITEL_ANSI
100
AcDbCircle
 10
74.38095048604677
 20
100.1259336373159
 30
0.0
 40
71.5405000001364
100
AcDbArc
 50
218.3108108108122
 51
219.5270270270259
  0
ARC
  5
3AF
330
1F
100
AcDbEntity
  8
TITEL_ANSI
100
AcDbCircle
 10
40.56043344494557
 20
39.22524642844309
 30
0.0
 40
26.315069572248
100
AcDbArc
 50
144.2641419996622
 51
154.5969363621068
  0
ARC
  5
3B0
330
1F
100
AcDbEntity
  8
TITEL_ANSI
100
AcDbCircle
 10
7.721882808402469
 20
79.89502234326889
 30
0.0
 40
26.315069572246
100
AcDbArc
 50
283.2409014757297
 51
293.5736958381759
  0
ARC
  5
3B1
330
1F
100
AcDbEntity
  8
TITEL_ANSI
100
AcDbCircle
 10
74.38095048590326
 20
100.1259336371935
 30
0.0
 40
71.5404999999477
100
AcDbArc
 50
223.1756756756752
 51
224.3918918918923
  0
ARC
  5
3B2
330
1F
100
AcDbEntity
  8
TITEL_ANSI
100
AcDbCircle
 10
45.84701132502167
 20
36.57646163797779
 30
0.0
 40
26.3150695722516
100
AcDbArc
 50
149.1290068645279
 51
159.4618012269723
  0
ARC
  5
3B3
330
1F
100
AcDbEntity
  8
TITEL_ANSI
100
AcDbCircle
 10
9.677723998720381
 20
74.31482057393468
 30
0.0
 40
26.3150695722498
100
AcDbArc
 50
288.1057663405958
 51
298.43856070304
  0
ARC
  5
3B4
330
1F
100
AcDbEntity
  8
TITEL_ANSI
100
AcDbCircle
 10
74.38095048597396
 20
100.1259336372676
 30
0.0
 40
71.5405000000502
100
AcDbArc
 50
228.0405405405407
 51
229.2567567567559
  0
ARC
  5
3B5
330
1F
100
AcDbEntity
  8
TITEL_ANSI
100
AcDbCircle
 10
51.33917689059967
 20
34.38555224950298
 30
0.0
 40
26.3150695722483
100
AcDbArc
 50
153.9938717293916
 51
164.3266660918371
  0
ARC
  5
3B6
330
1F
100
AcDbEntity
  8
TITEL_ANSI
100
AcDbCircle
 10
12.09975341855206
 20
68.92058846567599
 30
0.0
 40
26.315069572247
100
AcDbArc
 50
292.9706312054601
 51
303.3034255679045
  0
ARC
  5
3B7
330
1F
100
AcDbEntity
  8
TITEL_ANSI
100
AcDbCircle
 10
74.38095048593357
 20
100.1259336372205
 30
0.0
 40
71.5404999999882
100
AcDbArc
 50
232.9054054054061
 51
234.121621621621
  0
ARC
  5
3B8
330
1F
100
AcDbEntity
  8
TITEL_ANSI
100
AcDbCircle
 10
56.99735896293677
 20
32.66830381536248
 30
0.0
 40
26.3150695722489
100
AcDbArc
 50
158.8587365942571
 51
169.1915309567017
  0
ARC
  5
3B9
330
1F
100
AcDbEntity
  8
TITEL_ANSI
100
AcDbCircle
 10
14.97052029042147
 20
63.75119158445238
 30
0.0
 40
26.3150695722503
100
AcDbArc
 50
297.8354960703258
 51
308.1682904327701
  0
ARC
  5
3BA
330
1F
100
AcDbEntity
  8
TITEL_ANSI
100
AcDbCircle
 10
74.38095048595727
 20
100.1259336372563
 30
0.0
 40
71.54050000003109
100
AcDbArc
 50
237.7702702702701
 51
238.986486486486
  0
ARC
  5
3BB
330
1F
100
AcDbEntity
  8
TITEL_ANSI
100
AcDbCircle
 10
62.78079021054067
 20
31.43708914987679
 30
0.0
 40
26.3150695722489
100
AcDbArc
 50
163.7236014591224
 51
174.0563958215666
  0
ARC
  5
3BC
330
1F
100
AcDbEntity
  8
TITEL_ANSI
100
AcDbCircle
 10
18.26934067323907
 20
58.84387555324069
 30
0.0
 40
26.3150695722492
100
AcDbArc
 50
302.7003609351898
 51
313.0331552976348
  0
ARC
  5
3BD
330
1F
100
AcDbEntity
  8
TITEL_ANSI
100
AcDbCircle
 10
74.38095048591407
 20
100.125933637176
 30
0.0
 40
71.54049999993979
100
AcDbArc
 50
242.6351351351343
 51
243.8513513513516
  0
ARC
  5
3BE
330
1F
100
AcDbEntity
  8
TITEL_ANSI
100
AcDbCircle
 10
68.64780087874617
 20
30.7007791829237
 30
0.0
 40
26.3150695722493
100
AcDbArc
 50
168.5884663239873
 51
178.9212606864323
  0
ARC
  5
3BF
330
1F
100
AcDbEntity
  8
TITEL_ANSI
100
AcDbCircle
 10
21.97244649055116
 20
54.23399769650099
 30
0.0
 40
26.315069572249
100
AcDbArc
 50
307.5652258000553
 51
317.8980201625003
  0
ARC
  5
3C0
330
1F
100
AcDbEntity
  8
TITEL_ANSI
100
AcDbCircle
 10
74.38095048596247
 20
100.1259336372842
 30
0.0
 40
71.5405000000585
100
AcDbArc
 50
247.5000000000012
 51
248.7162162162153
  0
ARC
  5
3C1
330
1F
100
AcDbEntity
  8
TITEL_ANSI
100
AcDbCircle
 10
74.55611902124637
 20
30.46467904468759
 30
0.0
 40
26.3150695722498
100
AcDbArc
 50
173.453331188852
 51
183.7861255512956
  0
ARC
  5
3C2
330
1F
100
AcDbEntity
  8
TITEL_ANSI
100
AcDbCircle
 10
26.05315678008817
 20
49.95477228982549
 30
0.0
 40
26.31506957224881
100
AcDbArc
 50
312.4300906649199
 51
322.7628850273645
  0
ARC
  5
3C3
330
1F
100
AcDbEntity
  8
TITEL_ANSI
100
AcDbCircle
 10
74.38095048593467
 20
100.12593363721
 30
0.0
 40
71.5404999999792
100
AcDbArc
 50
252.3648648648647
 51
253.581081081081
  0
ARC
  5
3C4
330
1F
100
AcDbEntity
  8
TITEL_ANSI
100
AcDbCircle
 10
80.46317507043527
 20
30.73048984207489
 30
0.0
 40
26.3150695722497
100
AcDbArc
 50
178.318196053717
 51
188.650990416161
  0
ARC
  5
3C5
330
1F
100
AcDbEntity
  8
TITEL_ANSI
100
AcDbCircle
 10
30.48206993070307
 20
46.03703125032869
 30
0.0
 40
26.3150695722505
100
AcDbArc
 50
317.294955529785
 51
327.6277498922291
  0
ARC
  5
3C6
330
1F
100
AcDbEntity
  8
TITEL_ANSI
100
AcDbCircle
 10
74.38095048597308
 20
100.1259336373792
 30
0.0
 40
71.54050000015271
100
AcDbArc
 50
257.2297297297313
 51
258.445945945944
  0
ARC
  5
3C7
330
1F
100
AcDbEntity
  8
TITEL_ANSI
100
AcDbCircle
 10
86.32640855211878
 20
31.49629640219898
 30
0.0
 40
26.3150695722494
100
AcDbArc
 50
183.1830609185813
 51
193.515855281026
  0
ARC
  5
3C8
330
1F
100
AcDbEntity
  8
TITEL_ANSI
100
AcDbCircle
 10
35.22727552166168
 20
42.50900199197189
 30
0.0
 40
26.3150695722489
100
AcDbArc
 50
322.15982039465
 51
332.4926147570939
  0
ARC
  5
3C9
330
1F
100
AcDbEntity
  8
TITEL_ANSI
100
AcDbCircle
 10
74.38095048595556
 20
100.1259336373444
 30
0.0
 40
71.5405000001155
100
AcDbArc
 50
262.0945945945961
 51
263.310810810809
  0
ARC
  5
3CA
330
1F
100
AcDbEntity
  8
TITEL_ANSI
100
AcDbCircle
 10
92.10357473470587
 20
32.75658107124599
 30
0.0
 40
26.315069572249
100
AcDbArc
 50
188.047925783446
 51
198.3807201458906
  0
ARC
  5
3CB
330
1F
100
AcDbEntity
  8
TITEL_ANSI
100
AcDbCircle
 10
40.25458423794137
 20
39.39610404640889
 30
0.0
 40
26.3150695722484
100
AcDbArc
 50
327.024685259514
 51
337.3574796219592
  0
ARC
  5
3CC
330
1F
100
AcDbEntity
  8
TITEL_ANSI
100
AcDbCircle
 10
74.38095048594068
 20
100.1259336372281
 30
0.0
 40
71.5404999999982
100
AcDbArc
 50
266.9594594594597
 51
268.1756756756762
  0
ARC
  5
3CD
330
1F
100
AcDbEntity
  8
TITEL_ANSI
100
AcDbCircle
 10
97.75304900346858
 20
34.50226346929628
 30
0.0
 40
26.3150695722496
100
AcDbArc
 50
192.912790648311
 51
203.2455850107561
  0
ARC
  5
3CE
330
1F
100
AcDbEntity
  8
TITEL_ANSI
100
AcDbCircle
 10
45.52777420504057
 20
36.72076591466929
 30
0.0
 40
26.3150695722494
100
AcDbArc
 50
331.8895501243787
 51
342.2223444868237
  0
ARC
  5
3CF
330
1F
100
AcDbEntity
  8
TITEL_ANSI
100
AcDbCircle
 10
74.38095048593737
 20
100.1259336373069
 30
0.0
 40
71.54050000007709
100
AcDbArc
 50
271.8243243243254
 51
273.0405405405403
  0
ARC
  5
3D0
330
1F
100
AcDbEntity
  8
TITEL_ANSI
100
AcDbCircle
 10
103.2341267668406
 20
36.72076591466909
 30
0.0
 40
26.31506957224881
100
AcDbArc
 50
197.7776555131762
 51
208.1104498756213
  0
ARC
  5
3D1
330
1F
100
AcDbEntity
  8
TITEL_ANSI
100
AcDbCircle
 10
51.00885196841367
 20
34.50226346929608
 30
0.0
 40
26.3150695722492
100
AcDbArc
 50
336.7544149892438
 51
347.087209351689
  0
ARC
  5
3D2
330
1F
100
AcDbEntity
  8
TITEL_ANSI
100
AcDbCircle
 10
74.38095048592628
 20
100.1259336373444
 30
0.0
 40
71.5405000001156
100
AcDbArc
 50
276.6891891891901
 51
277.9054054054039
  0
ARC
  5
3D3
330
1F
100
AcDbEntity
  8
TITEL_ANSI
100
AcDbCircle
 10
108.5073167339407
 20
39.39610404640909
 30
0.0
 40
26.3150695722487
100
AcDbArc
 50
202.6425203780408
 51
212.975314740486
  0
ARC
  5
3D4
330
1F
100
AcDbEntity
  8
TITEL_ANSI
100
AcDbCircle
 10
56.65832623717527
 20
32.75658107124619
 30
0.0
 40
26.3150695722497
100
AcDbArc
 50
341.6192798541086
 51
351.952074216554
  0
ARC
  5
3D5
330
1F
100
AcDbEntity
  8
TITEL_ANSI
100
AcDbCircle
 10
74.38095048594288
 20
100.1259336372205
 30
0.0
 40
71.5404999999904
100
AcDbArc
 50
281.5540540540543
 51
282.7702702702704
  0
ARC
  5
3D6
330
1F
100
AcDbEntity
  8
TITEL_ANSI
100
AcDbCircle
 10
113.5346254502199
 20
42.50900199197199
 30
0.0
 40
26.3150695722489
100
AcDbArc
 50
207.5073852429061
 51
217.84017960535
  0
ARC
  5
3D7
330
1F
100
AcDbEntity
  8
TITEL_ANSI
100
AcDbCircle
 10
62.43549241976277
 20
31.49629640219898
 30
0.0
 40
26.3150695722496
100
AcDbArc
 50
346.4841447189739
 51
356.8169390814186
  0
ARC
  5
3D8
330
1F
100
AcDbEntity
  8
TITEL_ANSI
100
AcDbCircle
 10
74.38095048594717
 20
100.12593363721
 30
0.0
 40
71.5404999999792
100
AcDbArc
 50
286.418918918919
 51
287.6351351351353
  0
ARC
  5
3D9
330
1F
100
AcDbEntity
  8
TITEL_ANSI
100
AcDbCircle
 10
118.2798310411781
 20
46.03703125032839
 30
0.0
 40
26.3150695722498
100
AcDbArc
 50
212.3722501077708
 51
222.7050444702149
  0
ARC
  5
3DA
330
1F
100
AcDbEntity
  8
TITEL_ANSI
100
AcDbCircle
 10
68.29872590144727
 20
30.73048984207479
 30
0.0
 40
26.315069572249
100
AcDbArc
 50
351.349009583839
 51
1.681803946282966
  0
ARC
  5
3DB
330
1F
100
AcDbEntity
  8
TITEL_ANSI
100
AcDbCircle
 10
74.38095048591947
 20
100.1259336372832
 30
0.0
 40
71.5405000000574
100
AcDbArc
 50
291.2837837837838
 51
292.4999999999988
  0
ARC
  5
3DC
330
1F
100
AcDbEntity
  8
TITEL_ANSI
100
AcDbCircle
 10
122.7087441917938
 20
49.95477228982569
 30
0.0
 40
26.31506957224911
100
AcDbArc
 50
217.2371149726354
 51
227.5699093350801
  0
ARC
  5
3DD
330
1F
100
AcDbEntity
  8
TITEL_ANSI
100
AcDbCircle
 10
74.20578195063638
 20
30.4646790446877
 30
0.0
 40
26.31506957224881
100
AcDbArc
 50
356.2138744487044
 51
6.546668811148024
  0
ARC
  5
3DE
330
1F
100
AcDbEntity
  8
TITEL_ANSI
100
AcDbCircle
 10
74.38095048595967
 20
100.1259336371922
 30
0.0
 40
71.5404999999578
100
AcDbArc
 50
296.1486486486483
 51
297.3648648648646
  0
ARC
  5
3DF
330
1F
100
AcDbEntity
  8
TITEL_ANSI
100
AcDbCircle
 10
126.7894544813312
 20
54.2339976965017
 30
0.0
 40
26.3150695722499
100
AcDbArc
 50
222.1019798374997
 51
232.4347741999447
  0
ARC
  5
3E0
330
1F
100
AcDbEntity
  8
TITEL_ANSI
100
AcDbCircle
 10
80.11410009313548
 20
30.7007791829237
 30
0.0
 40
26.3150695722495
100
AcDbArc
 50
1.078739313568453
 51
11.41153367601349
  0
ARC
  5
3E1
330
1F
100
AcDbEntity
  8
TITEL_ANSI
100
AcDbCircle
 10
74.38095048592477
 20
100.1259336372558
 30
0.0
 40
71.54050000003059
100
AcDbArc
 50
301.013513513514
 51
302.2297297297299
  0
ARC
  5
3E2
330
1F
100
AcDbEntity
  8
TITEL_ANSI
100
AcDbCircle
 10
130.4925602986428
 20
58.84387555324089
 30
0.0
 40
26.3150695722494
100
AcDbArc
 50
226.9668447023652
 51
237.29963906481
  0
ARC
  5
3E3
330
1F
100
AcDbEntity
  8
TITEL_ANSI
100
AcDbCircle
 10
85.98111076134047
 20
31.43708914987659
 30
0.0
 40
26.3150695722497
100
AcDbArc
 50
5.943604178433389
 51
16.27639854087755
  0
ARC
  5
3E4
330
1F
100
AcDbEntity
  8
TITEL_ANSI
100
AcDbCircle
 10
74.38095048581627
 20
100.1259336373978
 30
0.0
 40
71.54050000020909
100
AcDbArc
 50
305.8783783783801
 51
307.0945945945929
  0
ARC
  5
3E5
330
1F
100
AcDbEntity
  8
TITEL_ANSI
100
AcDbCircle
 10
133.7913806814596
 20
63.75119158445179
 30
0.0
 40
26.3150695722495
100
AcDbArc
 50
231.8317095672299
 51
242.1645039296751
  0
ARC
  5
3E6
330
1F
100
AcDbEntity
  8
TITEL_ANSI
100
AcDbCircle
 10
91.76454200894458
 20
32.6683038153624
 30
0.0
 40
26.3150695722494
100
AcDbArc
 50
10.80846904329825
 51
21.14126340574293
  0
ARC
  5
3E7
330
1F
100
AcDbEntity
  8
TITEL_ANSI
100
AcDbCircle
 10
74.38095048590397
 20
100.125933637272
 30
0.0
 40
71.540500000056
100
AcDbArc
 50
310.7432432432441
 51
311.9594594594592
  0
ARC
  5
3E8
330
1F
100
AcDbEntity
  8
TITEL_ANSI
100
AcDbCircle
 10
136.6621475533314
 20
68.92058846567938
 30
0.0
 40
26.3150695722509
100
AcDbArc
 50
236.6965744320953
 51
247.0293687945388
  0
ARC
  5
3E9
330
1F
100
AcDbEntity
  8
TITEL_ANSI
100
AcDbCircle
 10
97.42272408127957
 20
34.38555224950209
 30
0.0
 40
26.3150695722509
100
AcDbArc
 50
15.67333390816367
 51
26.00612827060739
  0
ARC
  5
3EA
330
1F
100
AcDbEntity
  8
TITEL_ANSI
100
AcDbCircle
 10
74.38095048590027
 20
100.1259336372686
 30
0.0
 40
71.5405000000561
100
AcDbArc
 50
315.6081081081089
 51
316.8243243243242
  0
ARC
  5
3EB
330
1F
100
AcDbEntity
  8
TITEL_ANSI
100
AcDbCircle
 10
139.0841769731623
 20
74.31482057393698
 30
0.0
 40
26.3150695722522
100
AcDbArc
 50
241.56143929696
 51
251.8942336594036
  0
ARC
  5
3EC
330
1F
100
AcDbEntity
  8
TITEL_ANSI
100
AcDbCircle
 10
102.9148896468619
 20
36.57646163797869
 30
0.0
 40
26.3150695722495
100
AcDbArc
 50
20.53819877302764
 51
30.87099313547253
  0
ARC
  5
3ED
330
1F
100
AcDbEntity
  8
TITEL_ANSI
100
AcDbCircle
 10
74.38095048600667
 20
100.1259336371766
 30
0.0
 40
71.5404999999153
100
AcDbArc
 50
320.4729729729717
 51
321.6891891891908
  0
ARC
  5
3EE
330
1F
100
AcDbEntity
  8
TITEL_ANSI
100
AcDbCircle
 10
141.0400181634805
 20
79.89502234327298
 30
0.0
 40
26.3150695722504
100
AcDbArc
 50
246.4263041618247
 51
256.7590985242686
  0
ARC
  5
3EF
330
1F
100
AcDbEntity
  8
TITEL_ANSI
100
AcDbCircle
 10
108.2014675269357
 20
39.22524642844269
 30
0.0
 40
26.31506957224861
100
AcDbArc
 50
25.4030636378932
 51
35.73585800033796
  0
ARC
  5
3F0
330
1F
100
AcDbEntity
  8
TITEL_ANSI
100
AcDbCircle
 10
74.38095048590887
 20
100.1259336372512
 30
0.0
 40
71.54050000003841
100
AcDbArc
 50
325.3378378378379
 51
326.5540540540541
  0
ARC
  5
3F1
330
1F
100
AcDbEntity
  8
TITEL_ANSI
100
AcDbCircle
 10
142.515579243693
 20
85.62098829207128
 30
0.0
 40
26.3150695722477
100
AcDbArc
 50
251.2911690266886
 51
261.6239633891339
  0
ARC
  5
3F2
330
1F
100
AcDbEntity
  8
TITEL_ANSI
100
AcDbCircle
 10
113.2443678067323
 20
42.31282206578128
 30
0.0
 40
26.3150695722492
100
AcDbArc
 50
30.26792850275789
 51
40.60072286520251
  0
ARC
  5
3F3
330
1F
100
AcDbEntity
  8
TITEL_ANSI
100
AcDbCircle
 10
74.38095048590227
 20
100.1259336372511
 30
0.0
 40
71.5405000000441
100
AcDbArc
 50
330.202702702703
 51
331.4189189189189
  0
ARC
  5
3F4
330
1F
100
AcDbEntity
  8
TITEL_ANSI
100
AcDbCircle
 10
143.5002287624057
 20
91.45146270446568
 30
0.0
 40
26.3150695722493
100
AcDbArc
 50
256.1560338915553
 51
266.4888282539988
  0
ARC
  5
3F5
330
1F
100
AcDbEntity
  8
TITEL_ANSI
100
AcDbCircle
 10
118.0072562741798
 20
45.81694249677659
 30
0.0
 40
26.3150695722497
100
AcDbArc
 50
35.13279336762255
 51
45.46558773006736
  0
ARC
  5
3F6
330
1F
100
AcDbEntity
  8
TITEL_ANSI
100
AcDbCircle
 10
74.38095048584436
 20
100.1259336372733
 30
0.0
 40
71.54050000010579
100
AcDbArc
 50
335.0675675675686
 51
336.2837837837834
  0
ARC
  5
3F7
330
1F
100
AcDbEntity
  8
TITEL_ANSI
100
AcDbCircle
 10
143.9868722972713
 20
97.3444368787033
 30
0.0
 40
26.3150695722485
100
AcDbArc
 50
261.0208987564186
 51
271.3536931188644
  0
ARC
  5
3F8
330
1F
100
AcDbEntity
  8
TITEL_ANSI
100
AcDbCircle
 10
122.4558162087301
 20
49.71236045342809
 30
0.0
 40
26.3150695722478
100
AcDbArc
 50
39.99765823248715
 51
50.3304525949327
  0
ARC
  5
3F9
330
1F
100
AcDbEntity
  8
TITEL_ANSI
100
AcDbCircle
 10
74.38095048593616
 20
100.1259336372315
 30
0.0
 40
71.54050000000499
100
AcDbArc
 50
339.9324324324333
 51
341.1486486486479
  0
ARC
  5
3FA
330
1F
100
AcDbEntity
  8
TITEL_ANSI
100
AcDbCircle
 10
143.9720035704704
 20
103.2574518008254
 30
0.0
 40
26.3150695722492
100
AcDbArc
 50
265.8857636212842
 51
276.2185579837287
  0
ARC
  5
3FB
330
1F
100
AcDbEntity
  8
TITEL_ANSI
100
AcDbCircle
 10
126.557995634112
 20
53.97100936009059
 30
0.0
 40
26.3150695722497
100
AcDbArc
 50
44.86252309735217
 51
55.19531745979697
  0
ARC
  5
3FC
330
1F
100
AcDbEntity
  8
TITEL_ANSI
100
AcDbCircle
 10
74.38095048586927
 20
100.1259336372485
 30
0.0
 40
71.54050000007391
100
AcDbArc
 50
344.797297297298
 51
346.0135135135128
  0
ARC
  5
3FD
330
1F
100
AcDbEntity
  8
TITEL_ANSI
100
AcDbCircle
 10
143.4557297115203
 20
109.1479040628198
 30
0.0
 40
26.3150695722497
100
AcDbArc
 50
270.7506284861493
 51
281.0834228485929
  0
ARC
  5
3FE
330
1F
100
AcDbEntity
  8
TITEL_ANSI
100
AcDbCircle
 10
130.2842382535681
 20
58.56220555380839
 30
0.0
 40
26.3150695722502
100
AcDbArc
 50
49.72738796221702
 51
60.0601823246616
  0
ARC
  5
3FF
330
1F
100
AcDbEntity
  8
TITEL_ANSI
100
AcDbCircle
 10
74.38095048582197
 20
100.1259336372499
 30
0.0
 40
71.5405000001205
100
AcDbArc
 50
349.6621621621628
 51
350.8783783783778
  0
ARC
  5
400
330
1F
100
AcDbEntity
  8
TITEL_ANSI
100
AcDbCircle
 10
142.4417704854049
 20
114.9733528211589
 30
0.0
 40
26.3150695722489
100
AcDbArc
 50
275.6154933510137
 51
285.9482877134582
  0
ARC
  5
401
330
1F
100
AcDbEntity
  8
TITEL_ANSI
100
AcDbCircle
 10
133.6076964036384
 20
63.45286936079869
 30
0.0
 40
26.3150695722496
100
AcDbArc
 50
54.59225282708246
 51
64.92504718952654
  0
ARC
  5
402
330
1F
100
AcDbEntity
  8
TITEL_ANSI
100
AcDbCircle
 10
74.38095048603727
 20
100.1259336372217
 30
0.0
 40
71.5404999999032
100
AcDbArc
 50
354.5270270270263
 51
355.7432432432443
  0
ARC
  5
403
330
1F
100
AcDbEntity
  8
TITEL_ANSI
100
AcDbCircle
 10
140.9374314915831
 20
120.6918255840516
 30
0.0
 40
26.3150695722499
100
AcDbArc
 50
280.4803582158787
 51
290.8131525783226
  0
ARC
  5
404
330
1F
100
AcDbEntity
  8
TITEL_ANSI
100
AcDbCircle
 10
136.5044244921937
 20
68.60776343626209
 30
0.0
 40
26.3150695722492
100
AcDbArc
 50
59.45711769194655
 51
69.78991205439172
  0
ARC
  5
405
330
1F
100
AcDbEntity
  8
TITEL_ANSI
100
AcDbCircle
 10
74.38095048593587
 20
100.1259336372299
 30
0.0
 40
71.54050000000499
100
AcDbArc
 50
359.3918918918916
 51
0.6081081081091867
  0
ARC
  5
406
330
1F
100
AcDbEntity
  8
TITEL_ANSI
100
AcDbCircle
 10
138.9535515269773
 20
126.2621206242004
 30
0.0
 40
26.3150695722501
100
AcDbArc
 50
285.3452230807436
 51
295.678017443188
  0
ARC
  5
407
330
1F
100
AcDbEntity
  8
TITEL_ANSI
100
AcDbCircle
 10
138.9535515269775
 20
73.98974665025999
 30
0.0
 40
26.3150695722495
100
AcDbArc
 50
64.321982556812
 51
74.65477691925639
  0
ARC
  5
408
330
1F
100
AcDbEntity
  8
TITEL_ANSI
100
AcDbCircle
 10
74.38095048588417
 20
100.1259336372251
 30
0.0
 40
71.54050000005691
100
AcDbArc
 50
4.256756756757257
 51
5.472972972972036
  0
ARC
  5
409
330
1F
100
AcDbEntity
  8
TITEL_ANSI
100
AcDbCircle
 10
136.5044244921939
 20
131.6441038381973
 30
0.0
 40
26.3150695722487
100
AcDbArc
 50
290.2100879456082
 51
300.5428823080533
  0
ARC
  5
40A
330
1F
100
AcDbEntity
  8
TITEL_ANSI
100
AcDbCircle
 10
140.9374314915833
 20
79.56004169040929
 30
0.0
 40
26.3150695722487
100
AcDbArc
 50
69.18684742167652
 51
79.51964178412137
  0
ARC
  5
40B
330
1F
100
AcDbEntity
  8
TITEL_ANSI
100
AcDbCircle
 10
74.38095048597547
 20
100.1259336372361
 30
0.0
 40
71.54049999996491
100
AcDbArc
 50
9.121621621621416
 51
10.33783783783733
  0
ARC
  5
40C
330
1F
100
AcDbEntity
  8
TITEL_ANSI
100
AcDbCircle
 10
133.6076964036386
 20
136.7989979136607
 30
0.0
 40
26.3150695722493
100
AcDbArc
 50
295.0749528104728
 51
305.407747172918
  0
ARC
  5
40D
330
1F
100
AcDbEntity
  8
TITEL_ANSI
100
AcDbCircle
 10
142.4417704854048
 20
85.27851445330009
 30
0.0
 40
26.3150695722497
100
AcDbArc
 50
74.05171228654175
 51
84.38450664898629
  0
ARC
  5
40E
330
1F
100
AcDbEntity
  8
TITEL_ANSI
100
AcDbCircle
 10
74.38095048586958
 20
100.1259336372113
 30
0.0
 40
71.54050000007359
100
AcDbArc
 50
13.98648648648719
 51
15.20270270270203
  0
ARC
  5
40F
330
1F
100
AcDbEntity
  8
TITEL_ANSI
100
AcDbCircle
 10
130.2842382535688
 20
141.6896617206504
 30
0.0
 40
26.31506957224911
100
AcDbArc
 50
299.9398176753377
 51
310.272612037783
  0
ARC
  5
410
330
1F
100
AcDbEntity
  8
TITEL_ANSI
100
AcDbCircle
 10
143.4557297115203
 20
91.1039632116403
 30
0.0
 40
26.3150695722493
100
AcDbArc
 50
78.9165771514063
 51
89.24937151385073
  0
ARC
  5
411
330
1F
100
AcDbEntity
  8
TITEL_ANSI
100
AcDbCircle
 10
74.38095048593577
 20
100.1259336372283
 30
0.0
 40
71.54050000000541
100
AcDbArc
 50
18.8513513513513
 51
20.06756756756759
  0
ARC
  5
412
330
1F
100
AcDbEntity
  8
TITEL_ANSI
100
AcDbCircle
 10
126.5579956341134
 20
146.2808579143676
 30
0.0
 40
26.3150695722475
100
AcDbArc
 50
304.804682540203
 51
315.1374769026478
  0
ARC
  5
413
330
1F
100
AcDbEntity
  8
TITEL_ANSI
100
AcDbCircle
 10
143.9720035704704
 20
96.99441547363429
 30
0.0
 40
26.3150695722494
100
AcDbArc
 50
83.78144201627129
 51
94.11423637871584
  0
ARC
  5
414
330
1F
100
AcDbEntity
  8
TITEL_ANSI
100
AcDbCircle
 10
74.38095048590946
 20
100.1259336372155
 30
0.0
 40
71.5405000000345
100
AcDbArc
 50
23.71621621621658
 51
24.93243243243236
  0
ARC
  5
415
330
1F
100
AcDbEntity
  8
TITEL_ANSI
100
AcDbCircle
 10
122.4558162087298
 20
150.539506821032
 30
0.0
 40
26.3150695722481
100
AcDbArc
 50
309.6695474050679
 51
320.0023417675128
  0
ARC
  5
416
330
1F
100
AcDbEntity
  8
TITEL_ANSI
100
AcDbCircle
 10
143.9868722972713
 20
102.9074303957569
 30
0.0
 40
26.3150695722482
100
AcDbArc
 50
88.64630688113562
 51
98.97910124358137
  0
ARC
  5
417
330
1F
100
AcDbEntity
  8
TITEL_ANSI
100
AcDbCircle
 10
74.38095048584227
 20
100.1259336371745
 30
0.0
 40
71.54050000011309
100
AcDbArc
 50
28.58108108108224
 51
29.79729729729697
  0
ARC
  5
418
330
1F
100
AcDbEntity
  8
TITEL_ANSI
100
AcDbCircle
 10
118.0072562741798
 20
154.4349247776832
 30
0.0
 40
26.3150695722497
100
AcDbArc
 50
314.5344122699332
 51
324.8672066323768
  0
ARC
  5
419
330
1F
100
AcDbEntity
  8
TITEL_ANSI
100
AcDbCircle
 10
143.5002287624057
 20
108.8004045699936
 30
0.0
 40
26.3150695722499
100
AcDbArc
 50
93.51117174600123
 51
103.8439661084464
  0
ARC
  5
41A
330
1F
100
AcDbEntity
  8
TITEL_ANSI
100
AcDbCircle
 10
74.38095048583658
 20
100.1259336371591
 30
0.0
 40
71.540500000126
100
AcDbArc
 50
33.44594594594703
 51
34.66216216216096
  0
ARC
  5
41B
330
1F
100
AcDbEntity
  8
TITEL_ANSI
100
AcDbCircle
 10
113.2443678067324
 20
157.9390452086784
 30
0.0
 40
26.31506957224911
100
AcDbArc
 50
319.3992771347981
 51
329.7320714972421
  0
ARC
  5
41C
330
1F
100
AcDbEntity
  8
TITEL_ANSI
100
AcDbCircle
 10
142.5155792436933
 20
114.6308789823873
 30
0.0
 40
26.3150695722489
100
AcDbArc
 50
98.37603661086616
 51
108.7088309733114
  0
ARC
  5
41D
330
1F
100
AcDbEntity
  8
TITEL_ANSI
100
AcDbCircle
 10
74.38095048583438
 20
100.1259336371435
 30
0.0
 40
71.54050000013708
100
AcDbArc
 50
38.31081081081219
 51
39.52702702702588
  0
ARC
  5
41E
330
1F
100
AcDbEntity
  8
TITEL_ANSI
100
AcDbCircle
 10
108.2014675269332
 20
161.0266208460185
 30
0.0
 40
26.3150695722514
100
AcDbArc
 50
324.2641419996632
 51
334.5969363621068
  0
ARC
  5
41F
330
1F
100
AcDbEntity
  8
TITEL_ANSI
100
AcDbCircle
 10
141.0400181634805
 20
120.3568449311869
 30
0.0
 40
26.3150695722503
100
AcDbArc
 50
103.2409014757305
 51
113.5736958381748
  0
ARC
  5
420
330
1F
100
AcDbEntity
  8
TITEL_ANSI
100
AcDbCircle
 10
74.38095048590027
 20
100.1259336371911
 30
0.0
 40
71.5405000000561
100
AcDbArc
 50
43.17567567567578
 51
44.39189189189115
  0
ARC
  5
421
330
1F
100
AcDbEntity
  8
TITEL_ANSI
100
AcDbCircle
 10
102.9148896468629
 20
163.6754056364806
 30
0.0
 40
26.3150695722483
100
AcDbArc
 50
329.1290068645267
 51
339.4618012269723
  0
ARC
  5
422
330
1F
100
AcDbEntity
  8
TITEL_ANSI
100
AcDbCircle
 10
139.0841769731608
 20
125.9370467005263
 30
0.0
 40
26.3150695722483
100
AcDbArc
 50
108.1057663405947
 51
118.4385607030401
  0
ARC
  5
423
330
1F
100
AcDbEntity
  8
TITEL_ANSI
100
AcDbCircle
 10
74.38095048598197
 20
100.1259336372765
 30
0.0
 40
71.5404999999378
100
AcDbArc
 50
48.04054054054019
 51
49.25675675675759
  0
ARC
  5
424
330
1F
100
AcDbEntity
  8
TITEL_ANSI
100
AcDbCircle
 10
97.42272408128048
 20
165.8663150249573
 30
0.0
 40
26.3150695722499
100
AcDbArc
 50
333.9938717293915
 51
344.3266660918371
  0
ARC
  5
425
330
1F
100
AcDbEntity
  8
TITEL_ANSI
100
AcDbCircle
 10
136.6621475533287
 20
131.3312788087855
 30
0.0
 40
26.3150695722451
100
AcDbArc
 50
112.9706312054601
 51
123.3034255679057
  0
ARC
  5
426
330
1F
100
AcDbEntity
  8
TITEL_ANSI
100
AcDbCircle
 10
74.38095048592098
 20
100.1259336372029
 30
0.0
 40
71.5405000000335
100
AcDbArc
 50
52.90540540540606
 51
54.12162162162167
  0
ARC
  5
427
330
1F
100
AcDbEntity
  8
TITEL_ANSI
100
AcDbCircle
 10
91.76454200894697
 20
167.5835634590967
 30
0.0
 40
26.3150695722468
100
AcDbArc
 50
338.858736594257
 51
349.1915309567017
  0
ARC
  5
428
330
1F
100
AcDbEntity
  8
TITEL_ANSI
100
AcDbCircle
 10
133.791380681458
 20
136.5006756900104
 30
0.0
 40
26.3150695722467
100
AcDbArc
 50
117.8354960703247
 51
128.1682904327701
  0
ARC
  5
429
330
1F
100
AcDbEntity
  8
TITEL_ANSI
100
AcDbCircle
 10
74.38095048589047
 20
100.1259336371478
 30
0.0
 40
71.5405000000962
100
AcDbArc
 50
57.77027027027133
 51
58.98648648648601
  0
ARC
  5
42A
330
1F
100
AcDbEntity
  8
TITEL_ANSI
100
AcDbCircle
 10
85.98111076134127
 20
168.8147781245829
 30
0.0
 40
26.3150695722487
100
AcDbArc
 50
343.7236014591217
 51
354.0563958215666
  0
ARC
  5
42B
330
1F
100
AcDbEntity
  8
TITEL_ANSI
100
AcDbCircle
 10
130.4925602986434
 20
141.4079917212179
 30
0.0
 40
26.3150695722507
100
AcDbArc
 50
122.7003609351898
 51
133.0331552976342
  0
ARC
  5
42C
330
1F
100
AcDbEntity
  8
TITEL_ANSI
100
AcDbCircle
 10
74.38095048595958
 20
100.1259336372673
 30
0.0
 40
71.5404999999582
100
AcDbArc
 50
62.63513513513431
 51
63.851351351351
  0
ARC
  5
42D
330
1F
100
AcDbEntity
  8
TITEL_ANSI
100
AcDbCircle
 10
80.11410009313568
 20
169.5510880915361
 30
0.0
 40
26.3150695722493
100
AcDbArc
 50
348.5884663239865
 51
358.9212606864323
  0
ARC
  5
42E
330
1F
100
AcDbEntity
  8
TITEL_ANSI
100
AcDbCircle
 10
126.7894544813302
 20
146.0178695779591
 30
0.0
 40
26.3150695722485
100
AcDbArc
 50
127.5652258000552
 51
137.8980201625003
  0
ARC
  5
42F
330
1F
100
AcDbEntity
  8
TITEL_ANSI
100
AcDbCircle
 10
74.38095048591377
 20
100.1259336371623
 30
0.0
 40
71.5405000000728
100
AcDbArc
 50
67.50000000000035
 51
68.71621621621533
  0
ARC
  5
430
330
1F
100
AcDbEntity
  8
TITEL_ANSI
100
AcDbCircle
 10
74.20578195063597
 20
169.7871882297722
 30
0.0
 40
26.3150695722492
100
AcDbArc
 50
353.453331188852
 51
3.786125551295647
  0
ARC
  5
431
330
1F
100
AcDbEntity
  8
TITEL_ANSI
100
AcDbCircle
 10
122.708744191794
 20
150.297094984634
 30
0.0
 40
26.3150695722493
100
AcDbArc
 50
132.4300906649199
 51
142.7628850273646
  0
ARC
  5
432
330
1F
100
AcDbEntity
  8
TITEL_ANSI
100
AcDbCircle
 10
74.38095048595058
 20
100.1259336372614
 30
0.0
 40
71.540499999967
100
AcDbArc
 50
72.36486486486473
 51
73.58108108108099
  0
ARC
  5
433
330
1F
100
AcDbEntity
  8
TITEL_ANSI
100
AcDbCircle
 10
68.29872590144628
 20
169.521377432385
 30
0.0
 40
26.31506957225
100
AcDbArc
 50
358.318196053717
 51
8.650990416161
  0
ARC
  5
434
330
1F
100
AcDbEntity
  8
TITEL_ANSI
100
AcDbCircle
 10
118.2798310411778
 20
154.2148360241317
 30
0.0
 40
26.3150695722494
100
AcDbArc
 50
137.294955529785
 51
147.6277498922291
  0
ARC
  5
435
330
1F
100
AcDbEntity
  8
TITEL_ANSI
100
AcDbCircle
 10
74.38095048590956
 20
100.1259336370847
 30
0.0
 40
71.5405000001485
100
AcDbArc
 50
77.22972972973129
 51
78.4459459459448
  0
ARC
  5
436
330
1F
100
AcDbEntity
  8
TITEL_ANSI
100
AcDbCircle
 10
62.43549241976267
 20
168.7555708722607
 30
0.0
 40
26.3150695722497
100
AcDbArc
 50
3.183060918581392
 51
13.51585528102608
  0
ARC
  5
437
330
1F
100
AcDbEntity
  8
TITEL_ANSI
100
AcDbCircle
 10
113.5346254502207
 20
157.7428652824873
 30
0.0
 40
26.3150695722499
100
AcDbArc
 50
142.15982039465
 51
152.4926147570939
  0
ARC
  5
438
330
1F
100
AcDbEntity
  8
TITEL_ANSI
100
AcDbCircle
 10
74.38095048592618
 20
100.1259336371155
 30
0.0
 40
71.5405000001153
100
AcDbArc
 50
82.09459459459532
 51
83.31081081080904
  0
ARC
  5
439
330
1F
100
AcDbEntity
  8
TITEL_ANSI
100
AcDbCircle
 10
56.65832623717507
 20
167.4952862032136
 30
0.0
 40
26.3150695722499
100
AcDbArc
 50
8.047925783446862
 51
18.38072014589063
  0
ARC
  5
43A
330
1F
100
AcDbEntity
  8
TITEL_ANSI
100
AcDbCircle
 10
108.5073167339409
 20
160.8557632280505
 30
0.0
 40
26.31506957224911
100
AcDbArc
 50
147.0246852595139
 51
157.3574796219592
  0
ARC
  5
43B
330
1F
100
AcDbEntity
  8
TITEL_ANSI
100
AcDbCircle
 10
74.38095048594107
 20
100.1259336372313
 30
0.0
 40
71.5404999999986
100
AcDbArc
 50
86.95945945945975
 51
88.17567567567625
  0
ARC
  5
43C
330
1F
100
AcDbEntity
  8
TITEL_ANSI
100
AcDbCircle
 10
51.00885196841336
 20
165.7496038051634
 30
0.0
 40
26.3150695722494
100
AcDbArc
 50
12.912790648311
 51
23.24558501075541
  0
ARC
  5
43D
330
1F
100
AcDbEntity
  8
TITEL_ANSI
100
AcDbCircle
 10
103.234126766841
 20
163.5311013597905
 30
0.0
 40
26.3150695722492
100
AcDbArc
 50
151.8895501243787
 51
162.2223444868237
  0
ARC
  5
43E
330
1F
100
AcDbEntity
  8
TITEL_ANSI
100
AcDbCircle
 10
97.75304900346696
 20
165.749603805164
 30
0.0
 40
26.3150695722481
100
AcDbArc
 50
156.7544149892438
 51
167.087209351689
  0
ARC
  5
43F
330
1F
100
AcDbEntity
  8
TITEL_ANSI
100
AcDbCircle
 10
74.38095048594447
 20
100.1259336371526
 30
0.0
 40
71.54050000007742
100
AcDbArc
 50
91.82432432432539
 51
93.04054054054025
  0
ARC
  5
440
330
1F
100
AcDbEntity
  8
TITEL_ANSI
100
AcDbCircle
 10
45.52777420504017
 20
163.5311013597904
 30
0.0
 40
26.3150695722497
100
AcDbArc
 50
17.77765551317628
 51
28.11044987562065
  0
ARC
  5
441
330
1F
100
AcDbEntity
  8
TITEL_ANSI
100
AcDbCircle
 10
74.38095048595016
 20
100.125933637175
 30
0.0
 40
76.01380040505559
100
AcDbArc
 50
99.12162162162225
 51
100.3378378378373
  0
ARC
  5
442
330
1F
100
AcDbEntity
  8
TITEL_ANSI
100
AcDbCircle
 10
74.38095048593417
 20
100.1259336372556
 30
0.0
 40
76.01380040497339
100
AcDbArc
 50
103.9864864864856
 51
105.2027027027027
  0
ARC
  5
443
330
1F
100
AcDbEntity
  8
TITEL_ANSI
100
AcDbCircle
 10
74.38095048592777
 20
100.1259336372669
 30
0.0
 40
76.01380040496071
100
AcDbArc
 50
108.8513513513521
 51
110.0675675675678
  0
ARC
  5
444
330
1F
100
AcDbEntity
  8
TITEL_ANSI
100
AcDbCircle
 10
74.38095048592358
 20
100.1259336372686
 30
0.0
 40
76.01380040495759
100
AcDbArc
 50
113.7162162162157
 51
114.932432432433
  0
ARC
  5
445
330
1F
100
AcDbEntity
  8
TITEL_ANSI
100
AcDbCircle
 10
74.38095048593767
 20
100.1259336372357
 30
0.0
 40
76.0138004049934
100
AcDbArc
 50
118.5810810810812
 51
119.7972972972969
  0
ARC
  5
446
330
1F
100
AcDbEntity
  8
TITEL_ANSI
100
AcDbCircle
 10
74.38095048594196
 20
100.1259336372282
 30
0.0
 40
76.0138004050021
100
AcDbArc
 50
123.445945945946
 51
124.662162162162
  0
ARC
  5
447
330
1F
100
AcDbEntity
  8
TITEL_ANSI
100
AcDbCircle
 10
74.38095048588038
 20
100.1259336373045
 30
0.0
 40
76.0138004049039
100
AcDbArc
 50
128.3108108108103
 51
129.5270270270281
  0
ARC
  5
448
330
1F
100
AcDbEntity
  8
TITEL_ANSI
100
AcDbCircle
 10
74.38095048582757
 20
100.1259336373482
 30
0.0
 40
76.0138004048362
100
AcDbArc
 50
133.1756756756741
 51
134.3918918918928
  0
ARC
  5
449
330
1F
100
AcDbEntity
  8
TITEL_ANSI
100
AcDbCircle
 10
74.38095048602358
 20
100.1259336371574
 30
0.0
 40
76.0138004051099
100
AcDbArc
 50
138.0405405405419
 51
139.2567567567558
  0
ARC
  5
44A
330
1F
100
AcDbEntity
  8
TITEL_ANSI
100
AcDbCircle
 10
74.38095048588348
 20
100.1259336372726
 30
0.0
 40
76.0138004049284
100
AcDbArc
 50
142.9054054054049
 51
144.1216216216222
  0
ARC
  5
44B
330
1F
100
AcDbEntity
  8
TITEL_ANSI
100
AcDbCircle
 10
74.38095048591716
 20
100.1259336372446
 30
0.0
 40
76.0138004049722
100
AcDbArc
 50
147.7702702702701
 51
148.9864864864867
  0
ARC
  5
44C
330
1F
100
AcDbEntity
  8
TITEL_ANSI
100
AcDbCircle
 10
74.38095048594717
 20
100.1259336372266
 30
0.0
 40
76.01380040500709
100
AcDbArc
 50
152.6351351351353
 51
153.8513513513509
  0
ARC
  5
44D
330
1F
100
AcDbEntity
  8
TITEL_ANSI
100
AcDbCircle
 10
74.38095048594867
 20
100.1259336372267
 30
0.0
 40
76.01380040500849
100
AcDbArc
 50
157.5000000000004
 51
158.7162162162161
  0
ARC
  5
44E
330
1F
100
AcDbEntity
  8
TITEL_ANSI
100
AcDbCircle
 10
74.38095048580527
 20
100.1259336372714
 30
0.0
 40
76.01380040485809
100
AcDbArc
 50
162.3648648648639
 51
163.5810810810818
  0
ARC
  5
44F
330
1F
100
AcDbEntity
  8
TITEL_ANSI
100
AcDbCircle
 10
74.38095048588177
 20
100.1259336372428
 30
0.0
 40
76.0138004049394
100
AcDbArc
 50
167.2297297297296
 51
168.4459459459473
  0
ARC
  5
450
330
1F
100
AcDbEntity
  8
TITEL_ANSI
100
AcDbCircle
 10
74.38095048596887
 20
100.1259336372263
 30
0.0
 40
76.01380040502829
100
AcDbArc
 50
172.0945945945953
 51
173.3108108108106
  0
ARC
  5
451
330
1F
100
AcDbEntity
  8
TITEL_ANSI
100
AcDbCircle
 10
74.38095048582997
 20
100.125933637234
 30
0.0
 40
76.01380040488909
100
AcDbArc
 50
176.9594594594581
 51
178.1756756756762
  0
ARC
  5
452
330
1F
100
AcDbEntity
  8
TITEL_ANSI
100
AcDbCircle
 10
74.38095048598647
 20
100.1259336372323
 30
0.0
 40
76.0138004050457
100
AcDbArc
 50
181.8243243243245
 51
183.0405405405402
  0
ARC
  5
453
330
1F
100
AcDbEntity
  8
TITEL_ANSI
100
AcDbCircle
 10
74.38095048596458
 20
100.1259336372332
 30
0.0
 40
76.01380040502391
100
AcDbArc
 50
186.6891891891901
 51
187.9054054054046
  0
ARC
  5
454
330
1F
100
AcDbEntity
  8
TITEL_ANSI
100
AcDbCircle
 10
74.38095048596207
 20
100.1259336372345
 30
0.0
 40
76.01380040502171
100
AcDbArc
 50
191.5540540540544
 51
192.7702702702704
  0
ARC
  5
455
330
1F
100
AcDbEntity
  8
TITEL_ANSI
100
AcDbCircle
 10
74.38095048582147
 20
100.1259336371933
 30
0.0
 40
76.01380040487519
100
AcDbArc
 50
196.4189189189181
 51
197.6351351351361
  0
ARC
  5
456
330
1F
100
AcDbEntity
  8
TITEL_ANSI
100
AcDbCircle
 10
74.38095048607017
 20
100.1259336372819
 30
0.0
 40
76.01380040513941
100
AcDbArc
 50
201.2837837837846
 51
202.4999999999988
  0
ARC
  5
457
330
1F
100
AcDbEntity
  8
TITEL_ANSI
100
AcDbCircle
 10
74.38095048596887
 20
100.1259336372438
 30
0.0
 40
76.0138004050312
100
AcDbArc
 50
206.1486486486491
 51
207.3648648648647
  0
ARC
  5
458
330
1F
100
AcDbEntity
  8
TITEL_ANSI
100
AcDbCircle
 10
74.38095048599286
 20
100.1259336372619
 30
0.0
 40
76.01380040506099
100
AcDbArc
 50
211.013513513514
 51
212.2297297297288
  0
ARC
  5
459
330
1F
100
AcDbEntity
  8
TITEL_ANSI
100
AcDbCircle
 10
74.38095048600468
 20
100.1259336372771
 30
0.0
 40
76.0138004050794
100
AcDbArc
 50
215.8783783783789
 51
217.094594594594
  0
ARC
  5
45A
330
1F
100
AcDbEntity
  8
TITEL_ANSI
100
AcDbCircle
 10
74.38095048598568
 20
100.1259336372695
 30
0.0
 40
76.01380040505979
100
AcDbArc
 50
220.7432432432441
 51
221.9594594594591
  0
ARC
  5
45B
330
1F
100
AcDbEntity
  8
TITEL_ANSI
100
AcDbCircle
 10
74.38095048593527
 20
100.1259336372242
 30
0.0
 40
76.013800404992
100
AcDbArc
 50
225.6081081081077
 51
226.8243243243242
  0
ARC
  5
45C
330
1F
100
AcDbEntity
  8
TITEL_ANSI
100
AcDbCircle
 10
74.38095048599918
 20
100.1259336373021
 30
0.0
 40
76.0138004050928
100
AcDbArc
 50
230.472972972974
 51
231.6891891891889
  0
ARC
  5
45D
330
1F
100
AcDbEntity
  8
TITEL_ANSI
100
AcDbCircle
 10
74.38095048594018
 20
100.1259336372284
 30
0.0
 40
76.0138004049984
100
AcDbArc
 50
235.3378378378367
 51
236.5540540540541
  0
ARC
  5
45E
330
1F
100
AcDbEntity
  8
TITEL_ANSI
100
AcDbCircle
 10
74.38095048590646
 20
100.125933637168
 30
0.0
 40
76.01380040492919
100
AcDbArc
 50
240.2027027027022
 51
241.4189189189188
  0
ARC
  5
45F
330
1F
100
AcDbEntity
  8
TITEL_ANSI
100
AcDbCircle
 10
74.38095048600337
 20
100.1259336373681
 30
0.0
 40
76.0138004051517
100
AcDbArc
 50
245.0675675675695
 51
246.2837837837834
  0
ARC
  5
460
330
1F
100
AcDbEntity
  8
TITEL_ANSI
100
AcDbCircle
 10
74.38095048593737
 20
100.1259336372199
 30
0.0
 40
76.01380040498941
100
AcDbArc
 50
249.9324324324321
 51
251.1486486486487
  0
ARC
  5
461
330
1F
100
AcDbEntity
  8
TITEL_ANSI
100
AcDbCircle
 10
74.38095048594227
 20
100.1259336372359
 30
0.0
 40
76.01380040500619
100
AcDbArc
 50
254.7972972972979
 51
256.0135135135127
  0
ARC
  5
462
330
1F
100
AcDbEntity
  8
TITEL_ANSI
100
AcDbCircle
 10
74.38095048593497
 20
100.1259336371963
 30
0.0
 40
76.013800404966
100
AcDbArc
 50
259.6621621621627
 51
260.8783783783786
  0
ARC
  5
463
330
1F
100
AcDbEntity
  8
TITEL_ANSI
100
AcDbCircle
 10
74.38095048594457
 20
100.1259336372759
 30
0.0
 40
76.01380040504621
100
AcDbArc
 50
264.5270270270271
 51
265.7432432432427
  0
ARC
  5
464
330
1F
100
AcDbEntity
  8
TITEL_ANSI
100
AcDbCircle
 10
74.38095048594087
 20
100.1259336372555
 30
0.0
 40
76.01380040502559
100
AcDbArc
 50
269.3918918918916
 51
270.6081081081084
  0
ARC
  5
465
330
1F
100
AcDbEntity
  8
TITEL_ANSI
100
AcDbCircle
 10
74.38095048593247
 20
100.1259336373308
 30
0.0
 40
76.01380040510129
100
AcDbArc
 50
274.2567567567582
 51
275.4729729729721
  0
ARC
  5
466
330
1F
100
AcDbEntity
  8
TITEL_ANSI
100
AcDbCircle
 10
74.38095048593748
 20
100.1259336372509
 30
0.0
 40
76.0138004050213
100
AcDbArc
 50
279.1216216216223
 51
280.3378378378381
  0
ARC
  5
467
330
1F
100
AcDbEntity
  8
TITEL_ANSI
100
AcDbCircle
 10
74.38095048594497
 20
100.1259336372142
 30
0.0
 40
76.0138004049838
100
AcDbArc
 50
283.9864864864856
 51
285.2027027027028
  0
ARC
  5
468
330
1F
100
AcDbEntity
  8
TITEL_ANSI
100
AcDbCircle
 10
74.38095048592217
 20
100.1259336372826
 30
0.0
 40
76.0138004050559
100
AcDbArc
 50
288.8513513513522
 51
290.0675675675667
  0
ARC
  5
469
330
1F
100
AcDbEntity
  8
TITEL_ANSI
100
AcDbCircle
 10
74.38095048594817
 20
100.1259336372132
 30
0.0
 40
76.01380040498179
100
AcDbArc
 50
293.7162162162157
 51
294.932432432433
  0
ARC
  5
46A
330
1F
100
AcDbEntity
  8
TITEL_ANSI
100
AcDbCircle
 10
74.38095048593517
 20
100.1259336372394
 30
0.0
 40
76.01380040501109
100
AcDbArc
 50
298.5810810810822
 51
299.7972972972976
  0
ARC
  5
46B
330
1F
100
AcDbEntity
  8
TITEL_ANSI
100
AcDbCircle
 10
74.38095048591756
 20
100.1259336372642
 30
0.0
 40
76.0138004050415
100
AcDbArc
 50
303.4459459459458
 51
304.662162162162
  0
ARC
  5
46C
330
1F
100
AcDbEntity
  8
TITEL_ANSI
100
AcDbCircle
 10
74.38095048595347
 20
100.1259336372146
 30
0.0
 40
76.0138004049801
100
AcDbArc
 50
308.3108108108111
 51
309.5270270270271
  0
ARC
  5
46D
330
1F
100
AcDbEntity
  8
TITEL_ANSI
100
AcDbCircle
 10
74.38095048598137
 20
100.1259336371875
 30
0.0
 40
76.01380040494141
100
AcDbArc
 50
313.1756756756747
 51
314.3918918918922
  0
ARC
  5
46E
330
1F
100
AcDbEntity
  8
TITEL_ANSI
100
AcDbCircle
 10
74.38095048592987
 20
100.1259336372397
 30
0.0
 40
76.01380040501481
100
AcDbArc
 50
318.0405405405397
 51
319.2567567567571
  0
ARC
  5
46F
330
1F
100
AcDbEntity
  8
TITEL_ANSI
100
AcDbCircle
 10
74.38095048593978
 20
100.1259336372307
 30
0.0
 40
76.0138004050014
100
AcDbArc
 50
322.9054054054049
 51
324.1216216216222
  0
ARC
  5
470
330
1F
100
AcDbEntity
  8
TITEL_ANSI
100
AcDbCircle
 10
74.38095048602857
 20
100.1259336371754
 30
0.0
 40
76.01380040489679
100
AcDbArc
 50
327.7702702702701
 51
328.9864864864878
  0
ARC
  5
471
330
1F
100
AcDbEntity
  8
TITEL_ANSI
100
AcDbCircle
 10
74.38095048598977
 20
100.1259336372051
 30
0.0
 40
76.0138004049452
100
AcDbArc
 50
332.6351351351353
 51
333.8513513513517
  0
ARC
  5
472
330
1F
100
AcDbEntity
  8
TITEL_ANSI
100
AcDbCircle
 10
74.38095048594937
 20
100.1259336372271
 30
0.0
 40
76.013800404991
100
AcDbArc
 50
337.5000000000004
 51
338.7162162162161
  0
ARC
  5
473
330
1F
100
AcDbEntity
  8
TITEL_ANSI
100
AcDbCircle
 10
74.38095048604177
 20
100.1259336371991
 30
0.0
 40
76.01380040489459
100
AcDbArc
 50
342.3648648648647
 51
343.5810810810818
  0
ARC
  5
474
330
1F
100
AcDbEntity
  8
TITEL_ANSI
100
AcDbCircle
 10
74.38095048605177
 20
100.1259336372638
 30
0.0
 40
76.01380040488409
100
AcDbArc
 50
16.41891891891816
 51
17.6351351351361
  0
ARC
  5
475
330
1F
100
AcDbEntity
  8
TITEL_ANSI
100
AcDbCircle
 10
74.38095048585447
 20
100.1259336371955
 30
0.0
 40
76.0138004050928
100
AcDbArc
 50
21.28378378378386
 51
22.49999999999886
  0
ARC
  5
476
330
1F
100
AcDbEntity
  8
TITEL_ANSI
100
AcDbCircle
 10
74.38095048594828
 20
100.1259336372338
 30
0.0
 40
76.0138004049915
100
AcDbArc
 50
26.14864864864832
 51
27.36486486486467
  0
ARC
  5
477
330
1F
100
AcDbEntity
  8
TITEL_ANSI
100
AcDbCircle
 10
74.38095048602857
 20
100.1259336372844
 30
0.0
 40
76.01380040489679
100
AcDbArc
 50
31.01351351351221
 51
32.22972972972993
  0
ARC
  5
478
330
1F
100
AcDbEntity
  8
TITEL_ANSI
100
AcDbCircle
 10
74.38095048593257
 20
100.1259336372235
 30
0.0
 40
76.0138004050105
100
AcDbArc
 50
35.87837837837901
 51
37.09459459459467
  0
ARC
  5
479
330
1F
100
AcDbEntity
  8
TITEL_ANSI
100
AcDbCircle
 10
74.38095048582598
 20
100.1259336371291
 30
0.0
 40
76.01380040515279
100
AcDbArc
 50
40.74324324324471
 51
41.95945945945804
  0
ARC
  5
47A
330
1F
100
AcDbEntity
  8
TITEL_ANSI
100
AcDbCircle
 10
74.38095048586757
 20
100.125933637153
 30
0.0
 40
76.01380040510619
100
AcDbArc
 50
45.60810810810892
 51
46.8243243243236
  0
ARC
  5
47B
330
1F
100
AcDbEntity
  8
TITEL_ANSI
100
AcDbCircle
 10
74.38095048595997
 20
100.1259336372528
 30
0.0
 40
76.01380040497009
100
AcDbArc
 50
50.47297297297351
 51
51.68918918918964
  0
ARC
  5
47C
330
1F
100
AcDbEntity
  8
TITEL_ANSI
100
AcDbCircle
 10
74.38095048593827
 20
100.1259336372255
 30
0.0
 40
76.0138004050051
100
AcDbArc
 50
55.33783783783856
 51
56.55405405405413
  0
ARC
  5
47D
330
1F
100
AcDbEntity
  8
TITEL_ANSI
100
AcDbCircle
 10
74.38095048592836
 20
100.125933637208
 30
0.0
 40
76.01380040502521
100
AcDbArc
 50
60.20270270270239
 51
61.41891891891879
  0
ARC
  5
47E
330
1F
100
AcDbEntity
  8
TITEL_ANSI
100
AcDbCircle
 10
74.38095048593277
 20
100.1259336372114
 30
0.0
 40
76.01380040502021
100
AcDbArc
 50
65.06756756756835
 51
66.2837837837834
  0
ARC
  5
47F
330
1F
100
AcDbEntity
  8
TITEL_ANSI
100
AcDbCircle
 10
74.38095048595567
 20
100.1259336372718
 30
0.0
 40
76.0138004049556
100
AcDbArc
 50
69.93243243243212
 51
71.1486486486487
  0
ARC
  5
480
330
1F
100
AcDbEntity
  8
TITEL_ANSI
100
AcDbCircle
 10
74.38095048595447
 20
100.1259336372828
 30
0.0
 40
76.01380040494539
100
AcDbArc
 50
74.7972972972964
 51
76.01351351351356
  0
ARC
  5
481
330
1F
100
AcDbEntity
  8
TITEL_ANSI
100
AcDbCircle
 10
74.38095048594617
 20
100.12593363726
 30
0.0
 40
76.0138004049694
100
AcDbArc
 50
79.66216216216188
 51
80.87837837837859
  0
ARC
  5
482
330
1F
100
AcDbEntity
  8
TITEL_ANSI
100
AcDbCircle
 10
74.38095048593948
 20
100.1259336372129
 30
0.0
 40
76.01380040501701
100
AcDbArc
 50
84.52702702702715
 51
85.74324324324351
  0
ARC
  5
483
330
1F
100
AcDbEntity
  8
TITEL_ANSI
100
AcDbCircle
 10
74.38095048594087
 20
100.1259336372027
 30
0.0
 40
76.0138004050272
100
AcDbArc
 50
89.39189189189246
 51
90.60810810810757
  0
ARC
  5
484
330
1F
100
AcDbEntity
  8
TITEL_ANSI
100
AcDbCircle
 10
74.38095048595048
 20
100.1259336371142
 30
0.0
 40
76.01380040511608
100
AcDbArc
 50
94.25675675675812
 51
95.47297297297204
  0
POLYLINE
  5
4F8
330
1F
100
AcDbEntity
  8
0
100
AcDb2dPolyline
 66
     1
 10
0.0
 20
0.0
 30
0.0
 70
     1
  0
VERTEX
  5
4F9
330
4F8
100
AcDbEntity
  8
0
100
AcDbVertex
100
AcDb2dVertex
 10
252.3835431174289
 20
65.23891387616505
 30
0.0
  0
VERTEX
  5
4FA
330
4F8
100
AcDbEntity
  8
0
100
AcDbVertex
100
AcDb2dVertex
 10
259.3206543392168
 20
82.12021312983308
 30
0.0
 42
-0.6702069934064445
  0
VERTEX
  5
4FB
330
4F8
100
AcDbEntity
  8
0
100
AcDbVertex
100
AcDb2dVertex
 10
268.5701359682674
 20
82.12021312983308
 30
0.0
  0
VERTEX
  5
4FC
330
4F8
100
AcDbEntity
  8
0
100
AcDbVertex
100
AcDb2dVertex
 10
275.5072471900553
 20
65.23891387616508
 30
0.0
 42
-1.492076343335846
  0
SEQEND
  5
4FD
330
4F8
100
AcDbEntity
  8
0
  0
POLYLINE
  5
4FE
330
1F
100
AcDbEntity
  8
0
100
AcDb2dPolyline
 66
     1
 10
0.0
 20
0.0
 30
0.0
 70
     1
  0
VERTEX
  5
4FF
330
4FE
100
AcDbEntity
  8
0
100
AcDbVertex
100
AcDb2dVertex
 10
294.6057970542671
 20
84.33746374037685
 30
0.0
  0
VERTEX
  5
500
330
4FE
100
AcDbEntity
  8
0
100
AcDbVertex
100
AcDb2dVertex
 10
277.7244978005991
 20
91.27457496216477
 30
0.0
 42
-0.6702069934064445
  0
VERTEX
  5
501
330
4FE
100
AcDbEntity
  8
0
100
AcDbVertex
100
AcDb2dVertex
 10
277.7244978005991
 20
100.5240565912153
 30
0.0
  0
VERTEX
  5
502
330
4FE
100
AcDbEntity
  8
0
100
AcDbVertex
100
AcDb2dVertex
 10
294.605797054267
 20
107.4611678130032
 30
0.0
 42
-1.492076343335846
  0
SEQEND
  5
503
330
4FE
100
AcDbEntity
  8
0
  0
POLYLINE
  5
504
330
1F
100
AcDbEntity
  8
0
100
AcDb2dPolyline
 66
     1
 10
0.0
 20
0.0
 30
0.0
 70
     1
  0
VERTEX
  5
505
330
504
100
AcDbEntity
  8
0
100
AcDbVertex
100
AcDb2dVertex
 10
275.5072471900553
 20
126.559717677215
 30
0.0
  0
VERTEX
  5
506
330
504
100
AcDbEntity
  8
0
100
AcDbVertex
100
AcDb2dVertex
 10
268.5701359682674
 20
109.678418423547
 30
0.0
 42
-0.6702069934064446
  0
VERTEX
  5
507
330
504
100
AcDbEntity
  8
0
100
AcDbVertex
100
AcDb2dVertex
 10
259.3206543392168
 20
109.678418423547
 30
0.0
  0
VERTEX
  5
508
330
504
100
AcDbEntity
  8
0
100
AcDbVertex
100
AcDb2dVertex
 10
252.3835431174289
 20
126.559717677215
 30
0.0
 42
-1.492076343335846
  0
SEQEND
  5
509
330
504
100
AcDbEntity
  8
0
  0
POLYLINE
  5
50A
330
1F
100
AcDbEntity
  8
0
100
AcDb2dPolyline
 66
     1
 10
0.0
 20
0.0
 30
0.0
 70
     1
  0
VERTEX
  5
50B
330
50A
100
AcDbEntity
  8
0
100
AcDbVertex
100
AcDb2dVertex
 10
250.4406810339285
 20
125.7549578524087
 30
0.0
  0
VERTEX
  5
50C
330
50A
100
AcDbEntity
  8
0
100
AcDbVertex
100
AcDb2dVertex
 10
257.4722838246651
 20
108.9127982881291
 30
0.0
 42
-0.6702069934064446
  0
VERTEX
  5
50D
330
50A
100
AcDbEntity
  8
0
100
AcDbVertex
100
AcDb2dVertex
 10
250.9319126423029
 20
102.3724271057671
 30
0.0
  0
VERTEX
  5
50E
330
50A
100
AcDbEntity
  8
0
100
AcDbVertex
100
AcDb2dVertex
 10
234.0897530780234
 20
109.4040298965036
 30
0.0
 42
-1.492076343335848
  0
SEQEND
  5
50F
330
50A
100
AcDbEntity
  8
0
  0
POLYLINE
  5
510
330
1F
100
AcDbEntity
  8
0
100
AcDb2dPolyline
 66
     1
 10
0.0
 20
0.0
 30
0.0
 70
     1
  0
VERTEX
  5
511
330
510
100
AcDbEntity
  8
0
100
AcDbVertex
100
AcDb2dVertex
 10
293.8010372294608
 20
109.4040298965036
 30
0.0
  0
VERTEX
  5
512
330
510
100
AcDbEntity
  8
0
100
AcDbVertex
100
AcDb2dVertex
 10
276.9588776651812
 20
102.3724271057671
 30
0.0
 42
-0.6702069934064445
  0
VERTEX
  5
513
330
510
100
AcDbEntity
  8
0
100
AcDbVertex
100
AcDb2dVertex
 10
270.4185064828191
 20
108.9127982881291
 30
0.0
  0
VERTEX
  5
514
330
510
100
AcDbEntity
  8
0
100
AcDbVertex
100
AcDb2dVertex
 10
277.4501092735556
 20
125.7549578524087
 30
0.0
 42
-1.492076343335848
  0
SEQEND
  5
515
330
510
100
AcDbEntity
  8
0
  0
POLYLINE
  5
516
330
1F
100
AcDbEntity
  8
0
100
AcDb2dPolyline
 66
     1
 10
0.0
 20
0.0
 30
0.0
 70
     1
  0
VERTEX
  5
517
330
516
100
AcDbEntity
  8
0
100
AcDbVertex
100
AcDb2dVertex
 10
277.4501092735556
 20
66.04367370097136
 30
0.0
  0
VERTEX
  5
518
330
516
100
AcDbEntity
  8
0
100
AcDbVertex
100
AcDb2dVertex
 10
270.4185064828191
 20
82.88583326525097
 30
0.0
 42
-0.6702069934064445
  0
VERTEX
  5
519
330
516
100
AcDbEntity
  8
0
100
AcDbVertex
100
AcDb2dVertex
 10
276.9588776651812
 20
89.42620444761301
 30
0.0
  0
VERTEX
  5
51A
330
516
100
AcDbEntity
  8
0
100
AcDbVertex
100
AcDb2dVertex
 10
293.8010372294608
 20
82.39460165687651
 30
0.0
 42
-1.492076343335848
  0
SEQEND
  5
51B
330
516
100
AcDbEntity
  8
0
  0
POLYLINE
  5
51C
330
1F
100
AcDbEntity
  8
0
100
AcDb2dPolyline
 66
     1
 10
0.0
 20
0.0
 30
0.0
 70
     1
  0
VERTEX
  5
51D
330
51C
100
AcDbEntity
  8
0
100
AcDbVertex
100
AcDb2dVertex
 10
234.0897530780234
 20
82.39460165687647
 30
0.0
  0
VERTEX
  5
51E
330
51C
100
AcDbEntity
  8
0
100
AcDbVertex
100
AcDb2dVertex
 10
250.931912642303
 20
89.42620444761301
 30
0.0
 42
-0.6702069934064446
  0
VERTEX
  5
51F
330
51C
100
AcDbEntity
  8
0
100
AcDbVertex
100
AcDb2dVertex
 10
257.4722838246651
 20
82.88583326525095
 30
0.0
  0
VERTEX
  5
520
330
51C
100
AcDbEntity
  8
0
100
AcDbVertex
100
AcDb2dVertex
 10
250.4406810339285
 20
66.04367370097136
 30
0.0
 42
-1.492076343335846
  0
SEQEND
  5
521
330
51C
100
AcDbEntity
  8
0
  0
POLYLINE
  5
522
330
1F
100
AcDbEntity
  8
0
100
AcDb2dPolyline
 66
     1
 10
0.0
 20
0.0
 30
0.0
 70
     1
  0
VERTEX
  5
523
330
522
100
AcDbEntity
  8
0
100
AcDbVertex
100
AcDb2dVertex
 10
233.2849932532171
 20
107.4611678130032
 30
0.0
  0
VERTEX
  5
524
330
522
100
AcDbEntity
  8
0
100
AcDbVertex
100
AcDb2dVertex
 10
250.1662925068851
 20
100.5240565912153
 30
0.0
 42
-0.6702069934064441
  0
VERTEX
  5
525
330
522
100
AcDbEntity
  8
0
100
AcDbVertex
100
AcDb2dVertex
 10
250.1662925068851
 20
91.27457496216477
 30
0.0
  0
VERTEX
  5
526
330
522
100
AcDbEntity
  8
0
100
AcDbVertex
100
AcDb2dVertex
 10
233.2849932532171
 20
84.33746374037685
 30
0.0
 42
-1.492076343335846
  0
SEQEND
  5
527
330
522
100
AcDbEntity
  8
0
  0
POLYLINE
  5
528
330
1F
100
AcDbEntity
  8
0
100
AcDb2dPolyline
 66
     1
 10
0.0
 20
0.0
 30
0.0
 70
     1
  0
VERTEX
  5
529
330
528
100
AcDbEntity
  8
0
100
AcDbVertex
100
AcDb2dVertex
 10
263.9453951537421
 20
145.9255593220646
 30
0.0
  0
VERTEX
  5
52A
330
528
100
AcDbEntity
  8
0
100
AcDbVertex
100
AcDb2dVertex
 10
252.3023404679475
 20
150.6755814177832
 30
0.0
  0
VERTEX
  5
52B
330
528
100
AcDbEntity
  8
0
100
AcDbVertex
100
AcDb2dVertex
 10
253.5443542729622
 20
144.8323658743232
 30
0.0
  0
VERTEX
  5
52C
330
528
100
AcDbEntity
  8
0
100
AcDbVertex
100
AcDb2dVertex
 10
241.1681431414972
 20
147.0578614046757
 30
0.0
  0
VERTEX
  5
52D
330
528
100
AcDbEntity
  8
0
100
AcDbVertex
100
AcDb2dVertex
 10
243.597888788404
 20
141.6005633304894
 30
0.0
  0
VERTEX
  5
52E
330
528
100
AcDbEntity
  8
0
100
AcDbVertex
100
AcDb2dVertex
 10
231.0294210253636
 20
141.2042674616871
 30
0.0
  0
VERTEX
  5
52F
330
528
100
AcDbEntity
  8
0
100
AcDbVertex
100
AcDb2dVertex
 10
234.5407069701794
 20
136.371396969638
 30
0.0
  0
VERTEX
  5
530
330
528
100
AcDbEntity
  8
0
100
AcDbVertex
100
AcDb2dVertex
 10
222.329284927008
 20
133.3706297327861
 30
0.0
  0
VERTEX
  5
531
330
528
100
AcDbEntity
  8
0
100
AcDbVertex
100
AcDb2dVertex
 10
226.7686511249251
 20
129.3734064540624
 30
0.0
  0
VERTEX
  5
532
330
528
100
AcDbEntity
  8
0
100
AcDbVertex
100
AcDb2dVertex
 10
215.4479725418135
 20
123.89931577669
 30
0.0
  0
VERTEX
  5
533
330
528
100
AcDbEntity
  8
0
100
AcDbVertex
100
AcDb2dVertex
 10
220.6213973875404
 20
120.9124375493773
 30
0.0
  0
VERTEX
  5
534
330
528
100
AcDbEntity
  8
0
100
AcDbVertex
100
AcDb2dVertex
 10
210.6862302412135
 20
113.2042674616871
 30
0.0
  0
VERTEX
  5
535
330
528
100
AcDbEntity
  8
0
100
AcDbVertex
100
AcDb2dVertex
 10
216.3676102441453
 20
111.3582751969508
 30
0.0
  0
VERTEX
  5
536
330
528
100
AcDbEntity
  8
0
100
AcDbVertex
100
AcDb2dVertex
 10
208.2521690131188
 20
101.7529097196786
 30
0.0
  0
VERTEX
  5
537
330
528
100
AcDbEntity
  8
0
100
AcDbVertex
100
AcDb2dVertex
 10
214.1932006048413
 20
101.1284821375414
 30
0.0
  0
VERTEX
  5
538
330
528
100
AcDbEntity
  8
0
100
AcDbVertex
100
AcDb2dVertex
 10
208.2521690131188
 20
90.04572183370143
 30
0.0
  0
VERTEX
  5
539
330
528
100
AcDbEntity
  8
0
100
AcDbVertex
100
AcDb2dVertex
 10
214.1932006048413
 20
90.67014941583865
 30
0.0
  0
VERTEX
  5
53A
330
528
100
AcDbEntity
  8
0
100
AcDbVertex
100
AcDb2dVertex
 10
210.6862302412135
 20
78.59436409169299
 30
0.0
  0
VERTEX
  5
53B
330
528
100
AcDbEntity
  8
0
100
AcDbVertex
100
AcDb2dVertex
 10
216.3676102441453
 20
80.44035635642931
 30
0.0
  0
VERTEX
  5
53C
330
528
100
AcDbEntity
  8
0
100
AcDbVertex
100
AcDb2dVertex
 10
215.4479725418135
 20
67.89931577669005
 30
0.0
  0
VERTEX
  5
53D
330
528
100
AcDbEntity
  8
0
100
AcDbVertex
100
AcDb2dVertex
 10
220.6213973875405
 20
70.88619400400277
 30
0.0
  0
VERTEX
  5
53E
330
528
100
AcDbEntity
  8
0
100
AcDbVertex
100
AcDb2dVertex
 10
222.329284927008
 20
58.42800182059399
 30
0.0
  0
VERTEX
  5
53F
330
528
100
AcDbEntity
  8
0
100
AcDbVertex
100
AcDb2dVertex
 10
226.7686511249251
 20
62.42522509931767
 30
0.0
  0
VERTEX
  5
540
330
528
100
AcDbEntity
  8
0
100
AcDbVertex
100
AcDb2dVertex
 10
231.0294210253636
 20
50.594364091693
 30
0.0
  0
VERTEX
  5
541
330
528
100
AcDbEntity
  8
0
100
AcDbVertex
100
AcDb2dVertex
 10
234.5407069701794
 20
55.42723458374204
 30
0.0
  0
VERTEX
  5
542
330
528
100
AcDbEntity
  8
0
100
AcDbVertex
100
AcDb2dVertex
 10
241.1681431414973
 20
44.74077014870439
 30
0.0
  0
VERTEX
  5
543
330
528
100
AcDbEntity
  8
0
100
AcDbVertex
100
AcDb2dVertex
 10
243.597888788404
 20
50.19806822289067
 30
0.0
  0
VERTEX
  5
544
330
528
100
AcDbEntity
  8
0
100
AcDbVertex
100
AcDb2dVertex
 10
252.3023404679476
 20
41.12305013559694
 30
0.0
  0
VERTEX
  5
545
330
528
100
AcDbEntity
  8
0
100
AcDbVertex
100
AcDb2dVertex
 10
253.5443542729623
 20
46.96626567905692
 30
0.0
  0
VERTEX
  5
546
330
528
100
AcDbEntity
  8
0
100
AcDbVertex
100
AcDb2dVertex
 10
263.9453951537421
 20
39.89931577669005
 30
0.0
  0
VERTEX
  5
547
330
528
100
AcDbEntity
  8
0
100
AcDbVertex
100
AcDb2dVertex
 10
263.9453951537421
 20
45.87307223131553
 30
0.0
  0
VERTEX
  5
548
330
528
100
AcDbEntity
  8
0
100
AcDbVertex
100
AcDb2dVertex
 10
275.5884498395366
 20
41.12305013559693
 30
0.0
  0
VERTEX
  5
549
330
528
100
AcDbEntity
  8
0
100
AcDbVertex
100
AcDb2dVertex
 10
274.346436034522
 20
46.96626567905692
 30
0.0
  0
VERTEX
  5
54A
330
528
100
AcDbEntity
  8
0
100
AcDbVertex
100
AcDb2dVertex
 10
286.7226471659869
 20
44.74077014870442
 30
0.0
  0
VERTEX
  5
54B
330
528
100
AcDbEntity
  8
0
100
AcDbVertex
100
AcDb2dVertex
 10
284.2929015190801
 20
50.19806822289067
 30
0.0
  0
VERTEX
  5
54C
330
528
100
AcDbEntity
  8
0
100
AcDbVertex
100
AcDb2dVertex
 10
296.8613692821206
 20
50.59436409169301
 30
0.0
  0
VERTEX
  5
54D
330
528
100
AcDbEntity
  8
0
100
AcDbVertex
100
AcDb2dVertex
 10
293.3500833373048
 20
55.42723458374206
 30
0.0
  0
VERTEX
  5
54E
330
528
100
AcDbEntity
  8
0
100
AcDbVertex
100
AcDb2dVertex
 10
305.5615053804761
 20
58.42800182059402
 30
0.0
  0
VERTEX
  5
54F
330
528
100
AcDbEntity
  8
0
100
AcDbVertex
100
AcDb2dVertex
 10
301.1221391825591
 20
62.42522509931769
 30
0.0
  0
VERTEX
  5
550
330
528
100
AcDbEntity
  8
0
100
AcDbVertex
100
AcDb2dVertex
 10
312.4428177656707
 20
67.89931577669007
 30
0.0
  0
VERTEX
  5
551
330
528
100
AcDbEntity
  8
0
100
AcDbVertex
100
AcDb2dVertex
 10
307.2693929199437
 20
70.88619400400279
 30
0.0
  0
VERTEX
  5
552
330
528
100
AcDbEntity
  8
0
100
AcDbVertex
100
AcDb2dVertex
 10
317.2045600662707
 20
78.59436409169301
 30
0.0
  0
VERTEX
  5
553
330
528
100
AcDbEntity
  8
0
100
AcDbVertex
100
AcDb2dVertex
 10
311.5231800633389
 20
80.44035635642933
 30
0.0
  0
VERTEX
  5
554
330
528
100
AcDbEntity
  8
0
100
AcDbVertex
100
AcDb2dVertex
 10
319.6386212943654
 20
90.04572183370147
 30
0.0
  0
VERTEX
  5
555
330
528
100
AcDbEntity
  8
0
100
AcDbVertex
100
AcDb2dVertex
 10
313.6975897026428
 20
90.67014941583869
 30
0.0
  0
VERTEX
  5
556
330
528
100
AcDbEntity
  8
0
100
AcDbVertex
100
AcDb2dVertex
 10
319.6386212943654
 20
101.7529097196786
 30
0.0
  0
VERTEX
  5
557
330
528
100
AcDbEntity
  8
0
100
AcDbVertex
100
AcDb2dVertex
 10
313.6975897026429
 20
101.1284821375414
 30
0.0
  0
VERTEX
  5
558
330
528
100
AcDbEntity
  8
0
100
AcDbVertex
100
AcDb2dVertex
 10
317.2045600662707
 20
113.2042674616871
 30
0.0
  0
VERTEX
  5
559
330
528
100
AcDbEntity
  8
0
100
AcDbVertex
100
AcDb2dVertex
 10
311.5231800633389
 20
111.3582751969508
 30
0.0
  0
VERTEX
  5
55A
330
528
100
AcDbEntity
  8
0
100
AcDbVertex
100
AcDb2dVertex
 10
312.4428177656707
 20
123.89931577669
 30
0.0
  0
VERTEX
  5
55B
330
528
100
AcDbEntity
  8
0
100
AcDbVertex
100
AcDb2dVertex
 10
307.2693929199437
 20
120.9124375493773
 30
0.0
  0
VERTEX
  5
55C
330
528
100
AcDbEntity
  8
0
100
AcDbVertex
100
AcDb2dVertex
 10
305.5615053804761
 20
133.3706297327861
 30
0.0
  0
VERTEX
  5
55D
330
528
100
AcDbEntity
  8
0
100
AcDbVertex
100
AcDb2dVertex
 10
301.1221391825591
 20
129.3734064540624
 30
0.0
  0
VERTEX
  5
55E
330
528
100
AcDbEntity
  8
0
100
AcDbVertex
100
AcDb2dVertex
 10
296.8613692821206
 20
141.2042674616871
 30
0.0
  0
VERTEX
  5
55F
330
528
100
AcDbEntity
  8
0
100
AcDbVertex
100
AcDb2dVertex
 10
293.3500833373048
 20
136.3713969696381
 30
0.0
  0
VERTEX
  5
560
330
528
100
AcDbEntity
  8
0
100
AcDbVertex
100
AcDb2dVertex
 10
286.7226471659869
 20
147.0578614046757
 30
0.0
  0
VERTEX
  5
561
330
528
100
AcDbEntity
  8
0
100
AcDbVertex
100
AcDb2dVertex
 10
284.2929015190801
 20
141.6005633304894
 30
0.0
  0
VERTEX
  5
562
330
528
100
AcDbEntity
  8
0
100
AcDbVertex
100
AcDb2dVertex
 10
275.5884498395366
 20
150.6755814177832
 30
0.0
  0
VERTEX
  5
563
330
528
100
AcDbEntity
  8
0
100
AcDbVertex
100
AcDb2dVertex
 10
274.3464360345219
 20
144.8323658743232
 30
0.0
  0
VERTEX
  5
564
330
528
100
AcDbEntity
  8
0
100
AcDbVertex
100
AcDb2dVertex
 10
263.9453951537421
 20
151.89931577669
 30
0.0
  0
SEQEND
  5
565
330
528
100
AcDbEntity
  8
0
  0
CIRCLE
  5
566
330
1F
100
AcDbEntity
  8
0
100
AcDbCircle
 10
263.9453951537421
 20
95.89931577669005
 30
0.0
 40
5.0
  0
ENDSEC
  0
SECTION
  2
OBJECTS
  0
DICTIONARY
  5
C
330
0
100
AcDbDictionary
281
     1
  3
ACAD_CIP_PREVIOUS_PRODUCT_INFO
350
1A5
  3
ACAD_COLOR
350
73
  3
ACAD_DETAILVIEWSTYLE
350
1AB
  3
ACAD_GROUP
350
D
  3
ACAD_LAYOUT
350
1A
  3
ACAD_MATERIAL
350
72
  3
ACAD_MLEADERSTYLE
350
D7
  3
ACAD_MLINESTYLE
350
17
  3
ACAD_PLOTSETTINGS
350
19
  3
ACAD_PLOTSTYLENAME
350
E
  3
ACAD_RENDER_ACTIVE_RAPIDRT_SETTINGS
350
1F7
  3
ACAD_RENDER_RAPIDRT_SETTINGS
350
1F0
  3
ACAD_SCALELIST
350
B6
  3
ACAD_SECTIONVIEWSTYLE
350
1A8
  3
ACAD_TABLESTYLE
350
86
  3
ACAD_VISUALSTYLE
350
99
  3
ACDB_RECOMPOSE_DATA
350
579
  3
AcDbVariableDictionary
350
66
  0
DICTIONARY
  5
18E
330
2
100
AcDbDictionary
280
     1
281
     1
  3
ACAD_LAYERSTATES
360
18F
  0
DICTIONARY
  5
E6
330
10
100
AcDbDictionary
280
     1
281
     1
  0
DICTIONARY
  5
15D
330
1F
100
AcDbDictionary
280
     1
281
     1
  0
XRECORD
  5
1A5
102
{ACAD_REACTORS
330
C
102
}
330
C
100
AcDbXrecord
280
     1
300
ACD
300
2016
300
ACD_F_S
  0
DICTIONARY
  5
73
102
{ACAD_REACTORS
330
C
102
}
330
C
100
AcDbDictionary
281
     1
  0
DICTIONARY
  5
1AB
102
{ACAD_REACTORS
330
C
102
}
330
C
100
AcDbDictionary
281
     1
  3
Imperial24
350
1AC
  3
Metric50
350
1FA
  0
DICTIONARY
  5
D
102
{ACAD_REACTORS
330
C
102
}
330
C
100
AcDbDictionary
281
     1
  0
DICTIONARY
  5
1A
102
{ACAD_REACTORS
330
C
102
}
330
C
100
AcDbDictionary
281
     1
  3
Layout1
350
59
  3
Layout2
350
5E
  3
Model
350
22
  0
DICTIONARY
  5
72
102
{ACAD_REACTORS
330
C
102
}
330
C
100
AcDbDictionary
281
     1
  3
ByBlock
350
97
  3
ByLayer
350
96
  3
Global
350
98
  0
DICTIONARY
  5
D7
102
{ACAD_REACTORS
330
C
102
}
330
C
100
AcDbDictionary
281
     1
  3
Beschriftung
350
E5
  3
Standard
350
D8
  0
DICTIONARY
  5
17
102
{ACAD_REACTORS
330
C
102
}
330
C
100
AcDbDictionary
281
     1
  3
Standard
350
18
  0
DICTIONARY
  5
19
102
{ACAD_REACTORS
330
C
102
}
330
C
100
AcDbDictionary
281
     1
  0
ACDBDICTIONARYWDFLT
  5
E
102
{ACAD_REACTORS
330
C
102
}
330
C
100
AcDbDictionary
281
     1
  3
Normal
350
F
100
AcDbDictionaryWithDefault
340
F
  0
RAPIDRTRENDERSETTINGS
  5
1F7
102
{ACAD_REACTORS
330
C
102
}
330
C
100
AcDbRenderSettings
 90
        2
  1
Mittel
290
     1
290
     0
290
     1
290
     1
  1

  1
Wendet 5 Render-Ebenen an
 90
        0
100
AcDbRapidRTRenderSettings
 90
        3
 70
     0
 90
        5
 90
        1
 70
     1
 70
     2
 40
3.0
 40
3.0
290
     1
  0
DICTIONARY
  5
1F0
102
{ACAD_REACTORS
330
C
102
}
330
C
100
AcDbDictionary
281
     1
  3
Hoch
350
1F3
  3
Mittagsqualität
350
1F5
  3
Mittel
350
1F2
  3
Morgenqualität
350
1F4
  3
Nachtqualität
350
1F6
  3
Niedrig
350
1F1
  0
DICTIONARY
  5
B6
102
{ACAD_REACTORS
330
C
102
}
330
C
100
AcDbDictionary
281
     1
  3
A0
350
B7
  3
A1
350
124
  3
A2
350
125
  3
A3
350
126
  3
A4
350
127
  3
A5
350
128
  3
A6
350
129
  3
A7
350
12A
  3
A8
350
12B
  3
A9
350
12C
  3
B0
350
12D
  3
B1
350
12E
  3
B2
350
12F
  3
B3
350
130
  3
B4
350
131
  3
B5
350
132
  3
B6
350
133
  3
B7
350
134
  3
B8
350
135
  3
B9
350
136
  3
C0
350
137
  3
C1
350
138
  3
C2
350
139
  3
C3
350
13A
  3
C4
350
13B
  3
C5
350
13C
  3
C6
350
13D
  3
C7
350
13E
  3
C8
350
13F
  3
C9
350
140
  3
D0
350
141
  3
D1
350
142
  3
D2
350
143
  0
DICTIONARY
  5
1A8
102
{ACAD_REACTORS
330
C
102
}
330
C
100
AcDbDictionary
281
     1
  3
Imperial24
350
1AA
  3
Metric50
350
1F9
  0
DICTIONARY
  5
86
102
{ACAD_REACTORS
330
C
102
}
330
C
100
AcDbDictionary
281
     1
  3
Standard
350
87
  0
DICTIONARY
  5
99
102
{ACAD_REACTORS
330
C
102
}
330
C
100
AcDbDictionary
281
     1
  3
2dWireframe
350
9F
  3
Basic
350
9E
  3
Brighten
350
A5
  3
ColorChange
350
A9
  3
Conceptual
350
A2
  3
Dim
350
A4
  3
EdgeColorOff
350
175
  3
Facepattern
350
A8
  3
Flat
350
9A
  3
FlatWithEdges
350
9B
  3
Gouraud
350
9C
  3
GouraudWithEdges
350
9D
  3
Hidden
350
A1
  3
JitterOff
350
173
  3
Linepattern
350
A7
  3
OverhangOff
350
174
  3
Realistic
350
A3
  3
Shaded
350
182
  3
Shaded with edges
350
181
  3
Shades of Gray
350
17E
  3
Sketchy
350
17F
  3
Thicken
350
A6
  3
Wireframe
350
A0
  3
X-Ray
350
180
  0
XRECORD
  5
579
102
{ACAD_REACTORS
330
C
102
}
330
C
100
AcDbXrecord
280
     1
 90
        1
330
87
330
1AA
330
1AC
330
1F9
330
1FA
  0
DICTIONARY
  5
66
102
{ACAD_REACTORS
330
C
102
}
330
C
100
AcDbDictionary
281
     1
  3
CANNOSCALE
350
F0
  3
CMLEADERSTYLE
350
EF
  3
CTABLESTYLE
350
89
  3
CVIEWDETAILSTYLE
350
1B7
  3
CVIEWSECTIONSTYLE
350
1B8
  3
DIMASSOC
350
67
  3
HIDETEXT
350
6B
  3
LAYEREVAL
350
14D
  3
LAYERNOTIFY
350
14E
  0
DICTIONARY
  5
18F
102
{ACAD_REACTORS
330
18E
102
}
330
18E
100
AcDbDictionary
281
     1
  0
ACDBDETAILVIEWSTYLE
  5
1AC
102
{ACAD_XDICTIONARY
360
1C6
102
}
102
{ACAD_REACTORS
330
1AB
102
}
330
1AB
100
AcDbModelDocViewStyle
 70
     0
  3
Imperial24
290
     0
100
AcDbDetailViewStyle
 70
     0
 71
     0
 90
        3
 71
     1
340
11
 62
   256
 40
0.24
340
0
 62
   256
 40
0.24
300

 40
0.36
280
     3
 71
     2
340
16
 90
       25
 62
   256
 71
     3
340
11
 62
   256
 40
0.24
 90
        1
 40
0.75
 90
        1
300
%<\AcVar ViewType \f "%tc1">% %<\AcVar ViewDetailId>%\PSCALE %<\AcVar ViewScale \f "%sn">%
 71
     4
340
16
 90
       25
 62
   256
340
16
 90
       25
 62
   256
280
     0
  0
ACDBDETAILVIEWSTYLE
  5
1FA
102
{ACAD_XDICTIONARY
360
56B
102
}
102
{ACAD_REACTORS
330
1AB
102
}
330
1AB
100
AcDbModelDocViewStyle
 70
     0
  3
Metric50
290
     0
100
AcDbDetailViewStyle
 70
     0
 71
     0
 90
        3
 71
     1
340
11
 62
   256
 40
5.0
340
0
 62
   256
 40
5.0
300

 40
0.0
280
     1
 71
     2
340
16
 90
       25
 62
   256
 71
     3
340
11
 62
   256
 40
5.0
 90
        0
 40
15.0
 90
        1
300
%<\AcVar ViewDetailId>% (%<\AcVar ViewScale \f "%sn">%)
 71
     4
340
16
 90
       25
 62
   256
340
16
 90
       25
 62
   256
280
     0
  0
LAYOUT
  5
59
102
{ACAD_REACTORS
330
1A
102
}
330
1A
100
AcDbPlotSettings
  1

  2
None
  4

  6

 40
0.0
 41
0.0
 42
0.0
 43
0.0
 44
0.0
 45
0.0
 46
0.0
 47
0.0
 48
0.0
 49
0.0
140
0.0
141
0.0
142
1.0
143
1.0
 70
   688
 72
     0
 73
     0
 74
     5
  7

 75
    16
147
1.0
 76
     0
 77
     2
 78
   300
148
0.0
149
0.0
100
AcDbLayout
  1
Layout1
 70
     1
 71
     1
 10
0.0
 20
0.0
 11
12.0
 21
9.0
 12
0.0
 22
0.0
 32
0.0
 14
0.0
 24
0.0
 34
0.0
 15
0.0
 25
0.0
 35
0.0
146
0.0
 13
0.0
 23
0.0
 33
0.0
 16
1.0
 26
0.0
 36
0.0
 17
0.0
 27
1.0
 37
0.0
 76
     0
330
58
  0
LAYOUT
  5
5E
102
{ACAD_REACTORS
330
1A
102
}
330
1A
100
AcDbPlotSettings
  1

  2
None
  4

  6

 40
0.0
 41
0.0
 42
0.0
 43
0.0
 44
0.0
 45
0.0
 46
0.0
 47
0.0
 48
0.0
 49
0.0
140
0.0
141
0.0
142
1.0
143
1.0
 70
   688
 72
     0
 73
     0
 74
     5
  7

 75
    16
147
1.0
 76
     0
 77
     2
 78
   300
148
0.0
149
0.0
100
AcDbLayout
  1
Layout2
 70
     1
 71
     2
 10
0.0
 20
0.0
 11
12.0
 21
9.0
 12
0.0
 22
0.0
 32
0.0
 14
0.0
 24
0.0
 34
0.0
 15
0.0
 25
0.0
 35
0.0
146
0.0
 13
0.0
 23
0.0
 33
0.0
 16
1.0
 26
0.0
 36
0.0
 17
0.0
 27
1.0
 37
0.0
 76
     0
330
5D
  0
LAYOUT
  5
22
102
{ACAD_XDICTIONARY
360
194
102
}
102
{ACAD_REACTORS
330
1A
102
}
330
1A
100
AcDbPlotSettings
  1

  2
none_device
  4
ANSI_A_(8.50_x_11.00_Inches)
  6

 40
6.349999904632568
 41
19.04999923706055
 42
6.350006103515625
 43
19.04998779296875
 44
215.8999938964844
 45
279.3999938964844
 46
0.0
 47
0.0
 48
0.0
 49
0.0
140
0.0
141
0.0
142
1.0
143
2.584895464708373
 70
 11952
 72
     0
 73
     1
 74
     0
  7

 75
     0
147
0.3868628397755418
 76
     0
 77
     2
 78
   300
148
0.0
149
0.0
100
AcDbLayout
  1
Model
 70
     1
 71
     0
 10
0.0
 20
0.0
 11
12.0
 21
9.0
 12
0.0
 22
0.0
 32
0.0
 14
0.0
 24
0.0
 34
0.0
 15
0.0
 25
0.0
 35
0.0
146
0.0
 13
0.0
 23
0.0
 33
0.0
 16
1.0
 26
0.0
 36
0.0
 17
0.0
 27
1.0
 37
0.0
 76
     0
330
1F
331
94
  0
MATERIAL
  5
97
102
{ACAD_XDICTIONARY
360
188
102
}
102
{ACAD_REACTORS
330
72
102
}
330
72
100
AcDbMaterial
  1
ByBlock
 94
       63
  0
MATERIAL
  5
96
102
{ACAD_XDICTIONARY
360
186
102
}
102
{ACAD_REACTORS
330
72
102
}
330
72
100
AcDbMaterial
  1
ByLayer
 94
       63
  0
MATERIAL
  5
98
102
{ACAD_XDICTIONARY
360
110
102
}
102
{ACAD_REACTORS
330
72
102
}
330
72
100
AcDbMaterial
  1
Global
 43
0.0208000000566244
 43
0.0
 43
0.0
 43
0.0
 43
0.0
 43
0.0208000000566244
 43
0.0
 43
0.0
 43
0.0
 43
0.0
 43
1.0
 43
0.0
 43
0.0
 43
0.0
 43
0.0
 43
1.0
 49
0.0208000000566244
 49
0.0
 49
0.0
 49
0.0
 49
0.0
 49
0.0208000000566244
 49
0.0
 49
0.0
 49
0.0
 49
0.0
 49
1.0
 49
0.0
 49
0.0
 49
0.0
 49
0.0
 49
1.0
142
0.0208000000566244
142
0.0
142
0.0
142
0.0
142
0.0
142
0.0208000000566244
142
0.0
142
0.0
142
0.0
142
0.0
142
1.0
142
0.0
142
0.0
142
0.0
142
0.0
142
1.0
144
0.0208000000566244
144
0.0
144
0.0
144
0.0
144
0.0
144
0.0208000000566244
144
0.0
144
0.0
144
0.0
144
0.0
144
1.0
144
0.0
144
0.0
144
0.0
144
0.0
144
1.0
 94
       63
1001
ACAD
1070
    -1
1070
     3
1070
     0
1000

1071
        0
1070
     0
  0
MLEADERSTYLE
  5
E5
102
{ACAD_REACTORS
330
D7
102
}
330
D7
100
AcDbMLeaderStyle
179
     2
170
     2
171
     1
172
     0
 90
        2
 40
0.0
 41
0.0
173
     1
 91
-1056964608
340
14
 92
       -2
290
     1
 42
0.09
291
     1
 43
0.36
  3
Standard
 44
0.18
300

342
11
174
     1
178
     1
175
     1
176
     0
 93
-1056964608
 45
0.18
292
     0
297
     0
 46
0.18
 94
-1056964608
 47
1.0
 49
1.0
140
1.0
293
     1
141
0.0
294
     1
177
     0
142
1.0
295
     0
296
     1
143
0.125
271
     0
272
     9
273
     9
298
     0
  0
MLEADERSTYLE
  5
D8
102
{ACAD_REACTORS
330
D7
102
}
330
D7
100
AcDbMLeaderStyle
179
     2
170
     2
171
     1
172
     0
 90
        2
 40
0.0
 41
0.0
173
     1
 91
-1056964608
340
14
 92
       -2
290
     1
 42
0.09
291
     1
 43
0.36
  3
Standard
 44
0.18
300

342
11
174
     1
178
     1
175
     1
176
     0
 93
-1056964608
 45
0.18
292
     0
297
     0
 46
0.18
 94
-1056964608
 47
1.0
 49
1.0
140
1.0
293
     1
141
0.0
294
     1
177
     0
142
1.0
295
     0
296
     0
143
0.125
271
     0
272
     9
273
     9
298
     0
  0
MLINESTYLE
  5
18
102
{ACAD_REACTORS
330
17
102
}
330
17
100
AcDbMlineStyle
  2
STANDARD
 70
     0
  3

 62
   256
 51
90.0
 52
90.0
 71
     2
 49
0.5
 62
   256
  6
BYLAYER
 49
-0.5
 62
   256
  6
BYLAYER
  0
ACDBPLACEHOLDER
  5
F
102
{ACAD_REACTORS
330
E
102
}
330
E
  0
RAPIDRTRENDERSETTINGS
  5
1F3
102
{ACAD_REACTORS
330
1F0
102
}
330
1F0
100
AcDbRenderSettings
 90
        2
  1
Hoch
290
     1
290
     0
290
     1
290
     1
  1

  1
Wendet 10 Render-Ebenen an
 90
        2
100
AcDbRapidRTRenderSettings
 90
        3
 70
     0
 90
       10
 90
        1
 70
     2
 70
     2
 40
3.0
 40
3.0
290
     1
  0
RAPIDRTRENDERSETTINGS
  5
1F5
102
{ACAD_REACTORS
330
1F0
102
}
330
1F0
100
AcDbRenderSettings
 90
        2
  1
Mittagsqualität
290
     1
290
     0
290
     1
290
     1
  1

  1
Rendert für 60 Minuten
 90
        4
100
AcDbRapidRTRenderSettings
 90
        3
 70
     1
 90
        1
 90
       60
 70
     2
 70
     2
 40
3.0
 40
3.0
290
     1
  0
RAPIDRTRENDERSETTINGS
  5
1F2
102
{ACAD_REACTORS
330
1F0
102
}
330
1F0
100
AcDbRenderSettings
 90
        2
  1
Mittel
290
     1
290
     0
290
     1
290
     1
  1

  1
Wendet 5 Render-Ebenen an
 90
        1
100
AcDbRapidRTRenderSettings
 90
        3
 70
     0
 90
        5
 90
        1
 70
     1
 70
     2
 40
3.0
 40
3.0
290
     1
  0
RAPIDRTRENDERSETTINGS
  5
1F4
102
{ACAD_REACTORS
330
1F0
102
}
330
1F0
100
AcDbRenderSettings
 90
        2
  1
Morgenqualität
290
     1
290
     0
290
     1
290
     1
  1

  1
Rendert für 10 Minuten
 90
        3
100
AcDbRapidRTRenderSettings
 90
        3
 70
     1
 90
        1
 90
       10
 70
     1
 70
     2
 40
3.0
 40
3.0
290
     1
  0
RAPIDRTRENDERSETTINGS
  5
1F6
102
{ACAD_REACTORS
330
1F0
102
}
330
1F0
100
AcDbRenderSettings
 90
        2
  1
Nachtqualität
290
     1
290
     0
290
     1
290
     1
  1

  1
Rendert für 12 Stunden
 90
        5
100
AcDbRapidRTRenderSettings
 90
        3
 70
     1
 90
        1
 90
      720
 70
     2
 70
     2
 40
3.0
 40
3.0
290
     1
  0
RAPIDRTRENDERSETTINGS
  5
1F1
102
{ACAD_REACTORS
330
1F0
102
}
330
1F0
100
AcDbRenderSettings
 90
        2
  1
Niedrig
290
     1
290
     0
290
     1
290
     1
  1

  1
Wendet 1 Render-Ebene an
 90
        0
100
AcDbRapidRTRenderSettings
 90
        3
 70
     0
 90
        1
 90
        1
 70
     0
 70
     2
 40
3.0
 40
3.0
290
     1
  0
SCALE
  5
B7
102
{ACAD_REACTORS
330
B6
102
}
330
B6
100
AcDbScale
 70
     0
300
1:1
140
1.0
141
1.0
290
     1
  0
SCALE
  5
124
102
{ACAD_REACTORS
330
B6
102
}
330
B6
100
AcDbScale
 70
     0
300
1:2
140
1.0
141
2.0
290
     0
  0
SCALE
  5
125
102
{ACAD_REACTORS
330
B6
102
}
330
B6
100
AcDbScale
 70
     0
300
1:4
140
1.0
141
4.0
290
     0
  0
SCALE
  5
126
102
{ACAD_REACTORS
330
B6
102
}
330
B6
100
AcDbScale
 70
     0
300
1:5
140
1.0
141
5.0
290
     0
  0
SCALE
  5
127
102
{ACAD_REACTORS
330
B6
102
}
330
B6
100
AcDbScale
 70
     0
300
1:8
140
1.0
141
8.0
290
     0
  0
SCALE
  5
128
102
{ACAD_REACTORS
330
B6
102
}
330
B6
100
AcDbScale
 70
     0
300
1:10
140
1.0
141
10.0
290
     0
  0
SCALE
  5
129
102
{ACAD_REACTORS
330
B6
102
}
330
B6
100
AcDbScale
 70
     0
300
1:16
140
1.0
141
16.0
290
     0
  0
SCALE
  5
12A
102
{ACAD_REACTORS
330
B6
102
}
330
B6
100
AcDbScale
 70
     0
300
1:20
140
1.0
141
20.0
290
     0
  0
SCALE
  5
12B
102
{ACAD_REACTORS
330
B6
102
}
330
B6
100
AcDbScale
 70
     0
300
1:30
140
1.0
141
30.0
290
     0
  0
SCALE
  5
12C
102
{ACAD_REACTORS
330
B6
102
}
330
B6
100
AcDbScale
 70
     0
300
1:40
140
1.0
141
40.0
290
     0
  0
SCALE
  5
12D
102
{ACAD_REACTORS
330
B6
102
}
330
B6
100
AcDbScale
 70
     0
300
1:50
140
1.0
141
50.0
290
     0
  0
SCALE
  5
12E
102
{ACAD_REACTORS
330
B6
102
}
330
B6
100
AcDbScale
 70
     0
300
1:100
140
1.0
141
100.0
290
     0
  0
SCALE
  5
12F
102
{ACAD_REACTORS
330
B6
102
}
330
B6
100
AcDbScale
 70
     0
300
2:1
140
2.0
141
1.0
290
     0
  0
SCALE
  5
130
102
{ACAD_REACTORS
330
B6
102
}
330
B6
100
AcDbScale
 70
     0
300
4:1
140
4.0
141
1.0
290
     0
  0
SCALE
  5
131
102
{ACAD_REACTORS
330
B6
102
}
330
B6
100
AcDbScale
 70
     0
300
8:1
140
8.0
141
1.0
290
     0
  0
SCALE
  5
132
102
{ACAD_REACTORS
330
B6
102
}
330
B6
100
AcDbScale
 70
     0
300
10:1
140
10.0
141
1.0
290
     0
  0
SCALE
  5
133
102
{ACAD_REACTORS
330
B6
102
}
330
B6
100
AcDbScale
 70
     0
300
100:1
140
100.0
141
1.0
290
     0
  0
SCALE
  5
134
102
{ACAD_REACTORS
330
B6
102
}
330
B6
100
AcDbScale
 70
     0
300
1/128" = 1'-0"
140
0.0078125
141
12.0
290
     0
  0
SCALE
  5
135
102
{ACAD_REACTORS
330
B6
102
}
330
B6
100
AcDbScale
 70
     0
300
1/64" = 1'-0"
140
0.015625
141
12.0
290
     0
  0
SCALE
  5
136
102
{ACAD_REACTORS
330
B6
102
}
330
B6
100
AcDbScale
 70
     0
300
1/32" = 1'-0"
140
0.03125
141
12.0
290
     0
  0
SCALE
  5
137
102
{ACAD_REACTORS
330
B6
102
}
330
B6
100
AcDbScale
 70
     0
300
1/16" = 1'-0"
140
0.0625
141
12.0
290
     0
  0
SCALE
  5
138
102
{ACAD_REACTORS
330
B6
102
}
330
B6
100
AcDbScale
 70
     0
300
3/32" = 1'-0"
140
0.09375
141
12.0
290
     0
  0
SCALE
  5
139
102
{ACAD_REACTORS
330
B6
102
}
330
B6
100
AcDbScale
 70
     0
300
1/8" = 1'-0"
140
0.125
141
12.0
290
     0
  0
SCALE
  5
13A
102
{ACAD_REACTORS
330
B6
102
}
330
B6
100
AcDbScale
 70
     0
300
3/16" = 1'-0"
140
0.1875
141
12.0
290
     0
  0
SCALE
  5
13B
102
{ACAD_REACTORS
330
B6
102
}
330
B6
100
AcDbScale
 70
     0
300
1/4" = 1'-0"
140
0.25
141
12.0
290
     0
  0
SCALE
  5
13C
102
{ACAD_REACTORS
330
B6
102
}
330
B6
100
AcDbScale
 70
     0
300
3/8" = 1'-0"
140
0.375
141
12.0
290
     0
  0
SCALE
  5
13D
102
{ACAD_REACTORS
330
B6
102
}
330
B6
100
AcDbScale
 70
     0
300
1/2" = 1'-0"
140
0.5
141
12.0
290
     0
  0
SCALE
  5
13E
102
{ACAD_REACTORS
330
B6
102
}
330
B6
100
AcDbScale
 70
     0
300
3/4" = 1'-0"
140
0.75
141
12.0
290
     0
  0
SCALE
  5
13F
102
{ACAD_REACTORS
330
B6
102
}
330
B6
100
AcDbScale
 70
     0
300
1" = 1'-0"
140
1.0
141
12.0
290
     0
  0
SCALE
  5
140
102
{ACAD_REACTORS
330
B6
102
}
330
B6
100
AcDbScale
 70
     0
300
1-1/2" = 1'-0"
140
1.5
141
12.0
290
     0
  0
SCALE
  5
141
102
{ACAD_REACTORS
330
B6
102
}
330
B6
100
AcDbScale
 70
     0
300
3" = 1'-0"
140
3.0
141
12.0
290
     0
  0
SCALE
  5
142
102
{ACAD_REACTORS
330
B6
102
}
330
B6
100
AcDbScale
 70
     0
300
6" = 1'-0"
140
6.0
141
12.0
290
     0
  0
SCALE
  5
143
102
{ACAD_REACTORS
330
B6
102
}
330
B6
100
AcDbScale
 70
     0
300
1'-0" = 1'-0"
140
12.0
141
12.0
290
     0
  0
ACDBSECTIONVIEWSTYLE
  5
1AA
102
{ACAD_XDICTIONARY
360
1C4
102
}
102
{ACAD_REACTORS
330
1A8
102
}
330
1A8
100
AcDbModelDocViewStyle
 70
     0
  3
Imperial24
290
     0
100
AcDbSectionViewStyle
 70
     0
 71
     0
 90
       78
 71
     1
340
11
 62
   256
 40
0.24
340
0
340
0
 62
   256
 40
0.24
300
I, O, Q, S, X, Z
 40
0.48
 90
        3
 40
0.18
 90
        1
 71
     2
340
16
 90
       25
 62
   256
340
16
 90
       50
 62
   256
 40
0.24
 40
0.0
 40
0.24
 71
     3
340
11
 62
   256
 40
0.24
 90
        1
 40
0.75
 90
        1
300
%<\AcVar ViewType \f "%tc1">% %<\AcVar ViewSectionStartId>%-%<\AcVar ViewSectionEndId>%\PSCALE %<\AcVar ViewScale \f "%sn">%
 71
     4
 62
   256
 62
   257
300
ANSI31
 40
1.0
 90
        0
290
     0
290
     0
 90
        6
 40
0.0
 40
1.570796326794896
 40
0.2617993877991494
 40
1.308996938995747
 40
-0.2617993877991494
 40
1.832595714594046
  0
ACDBSECTIONVIEWSTYLE
  5
1F9
102
{ACAD_XDICTIONARY
360
569
102
}
102
{ACAD_REACTORS
330
1A8
102
}
330
1A8
100
AcDbModelDocViewStyle
 70
     0
  3
Metric50
290
     0
100
AcDbSectionViewStyle
 70
     0
 71
     0
 90
      102
 71
     1
340
11
 62
   256
 40
5.0
340
0
340
0
 62
   256
 40
5.0
300
I, O, Q, S, X, Z
 40
10.0
 90
        0
 40
2.5
 90
        0
 71
     2
340
16
 90
       25
 62
   256
340
16
 90
       50
 62
   256
 40
5.0
 40
2.5
 40
5.0
 71
     3
340
11
 62
   256
 40
5.0
 90
        0
 40
15.0
 90
        1
300
%<\AcVar ViewSectionStartId>%-%<\AcVar ViewSectionEndId>% (%<\AcVar ViewScale \f "%sn">%)
 71
     4
 62
   256
 62
   257
300
ANSI31
 40
1.0
 90
        0
290
     0
290
     0
 90
        6
 40
0.0
 40
1.570796326794896
 40
0.2617993877991494
 40
1.308996938995747
 40
-0.2617993877991494
 40
1.832595714594046
  0
TABLESTYLE
  5
87
102
{ACAD_XDICTIONARY
360
104
102
}
102
{ACAD_REACTORS
330
86
102
}
330
86
100
AcDbTableStyle
280
     0
  3
Standard
 70
     0
 71
     0
 40
0.06
 41
0.06
280
     0
281
     0
  7
Standard
140
0.18
170
     2
 62
     0
 63
     7
283
     0
 90
      512
 91
        0
  1

274
    -2
284
     1
 64
     0
275
    -2
285
     1
 65
     0
276
    -2
286
     1
 66
     0
277
    -2
287
     1
 67
     0
278
    -2
288
     1
 68
     0
279
    -2
289
     1
 69
     0
  7
Standard
140
0.25
170
     5
 62
     0
 63
     7
283
     0
 90
      512
 91
        0
  1

274
    -2
284
     1
 64
     0
275
    -2
285
     1
 65
     0
276
    -2
286
     1
 66
     0
277
    -2
287
     1
 67
     0
278
    -2
288
     1
 68
     0
279
    -2
289
     1
 69
     0
  7
Standard
140
0.18
170
     5
 62
     0
 63
     7
283
     0
 90
      512
 91
        0
  1

274
    -2
284
     1
 64
     0
275
    -2
285
     1
 65
     0
276
    -2
286
     1
 66
     0
277
    -2
287
     1
 67
     0
278
    -2
288
     1
 68
     0
279
    -2
289
     1
 69
     0
  0
VISUALSTYLE
  5
9F
102
{ACAD_REACTORS
330
99
102
}
330
99
100
AcDbVisualStyle
  2
2dWireframe
 70
     4
177
     3
291
     0
 70
    58
 90
        0
176
     1
 90
        2
176
     1
 90
        1
176
     1
 90
        0
176
     1
 40
0.6
176
     1
 40
30.0
176
     1
 62
     7
420
 16777215
176
     1
 90
        1
176
     1
 90
        4
176
     1
 62
     7
176
     1
 62
   257
176
     1
 90
        1
176
     1
 90
        1
176
     1
 40
1.0
176
     1
 90
        0
176
     1
 62
   257
176
     1
 40
1.0
176
     1
 90
        1
176
     1
 90
        6
176
     1
 90
        2
176
     1
 62
     7
176
     1
 90
        5
176
     1
 90
        0
176
     1
 90
        0
176
     1
290
     0
176
     1
 90
        1
176
     1
 40
0.0
176
     1
 90
        0
176
     1
290
     1
176
     1
290
     1
176
     1
290
     0
176
     1
290
     0
176
     1
290
     0
176
     1
290
     0
176
     1
290
     0
176
     1
290
     0
176
     1
290
     0
176
     1
 90
       50
176
     1
 40
0.0
176
     1
 40
1.0
176
     1
 90
        0
176
     1
 62
    18
420
        0
176
     1
 90
       50
176
     1
 90
        3
176
     1
 62
     5
420
      255
176
     1
290
     0
176
     1
 90
       50
176
     1
 90
       50
176
     1
 90
       50
176
     1
290
     0
176
     1
 90
       50
176
     1
 62
   256
176
     0
 40
1.0
176
     0
 90
        2
176
     1
  1
strokes_ogs.tif
176
     1
290
     0
176
     1
 40
1.0
176
     1
 40
1.0
176
     1
  0
VISUALSTYLE
  5
9E
102
{ACAD_REACTORS
330
99
102
}
330
99
100
AcDbVisualStyle
  2
Basic
 70
     7
177
     3
291
     1
 70
    58
 90
        1
176
     1
 90
        0
176
     1
 90
        1
176
     1
 90
        0
176
     1
 40
0.6
176
     1
 40
30.0
176
     1
 62
     7
420
 16777215
176
     1
 90
        0
176
     1
 90
        4
176
     1
 62
     7
176
     1
 62
   257
176
     1
 90
        1
176
     1
 90
        1
176
     1
 40
1.0
176
     1
 90
        8
176
     1
 62
     7
176
     1
 40
1.0
176
     1
 90
        1
176
     1
 90
        6
176
     1
 90
        2
176
     1
 62
     7
176
     1
 90
        5
176
     1
 90
        0
176
     1
 90
        0
176
     1
290
     0
176
     1
 90
        1
176
     1
 40
0.0
176
     1
 90
        0
176
     1
290
     0
176
     1
290
     1
176
     1
290
     1
176
     1
290
     0
176
     1
290
     0
176
     1
290
     0
176
     1
290
     0
176
     1
290
     0
176
     1
290
     0
176
     1
 90
       50
176
     1
 40
0.0
176
     1
 40
1.0
176
     1
 90
        0
176
     1
 62
    18
420
        0
176
     1
 90
       50
176
     1
 90
        3
176
     1
 62
     5
420
      255
176
     1
290
     0
176
     1
 90
       50
176
     1
 90
       50
176
     1
 90
       50
176
     1
290
     0
176
     1
 90
       50
176
     1
 62
   256
176
     0
 40
1.0
176
     0
 90
        2
176
     1
  1
strokes_ogs.tif
176
     1
290
     0
176
     1
 40
1.0
176
     1
 40
1.0
176
     1
  0
VISUALSTYLE
  5
A5
102
{ACAD_REACTORS
330
99
102
}
330
99
100
AcDbVisualStyle
  2
Brighten
 70
    12
177
     3
291
     1
 70
    58
 90
        2
176
     1
 90
        2
176
     1
 90
        1
176
     1
 90
        0
176
     1
 40
0.6
176
     1
 40
30.0
176
     1
 62
     7
420
 16777215
176
     1
 90
        1
176
     1
 90
        4
176
     1
 62
     7
176
     1
 62
   257
176
     1
 90
        1
176
     1
 90
        1
176
     1
 40
1.0
176
     1
 90
        8
176
     1
 62
     7
176
     1
 40
1.0
176
     1
 90
        1
176
     1
 90
        6
176
     1
 90
        2
176
     1
 62
     7
176
     1
 90
        5
176
     1
 90
        0
176
     1
 90
        0
176
     1
290
     0
176
     1
 90
        1
176
     1
 40
50.0
176
     1
 90
        0
176
     1
290
     0
176
     1
290
     1
176
     1
290
     1
176
     1
290
     0
176
     1
290
     0
176
     1
290
     0
176
     1
290
     0
176
     1
290
     0
176
     1
290
     0
176
     1
 90
       50
176
     1
 40
0.0
176
     1
 40
1.0
176
     1
 90
        0
176
     1
 62
    18
420
        0
176
     1
 90
       50
176
     1
 90
        3
176
     1
 62
     5
420
      255
176
     1
290
     0
176
     1
 90
       50
176
     1
 90
       50
176
     1
 90
       50
176
     1
290
     0
176
     1
 90
       50
176
     1
 62
   256
176
     0
 40
1.0
176
     0
 90
        2
176
     1
  1
strokes_ogs.tif
176
     1
290
     0
176
     1
 40
1.0
176
     1
 40
1.0
176
     1
  0
VISUALSTYLE
  5
A9
102
{ACAD_REACTORS
330
99
102
}
330
99
100
AcDbVisualStyle
  2
ColorChange
 70
    16
177
     3
291
     1
 70
    58
 90
        2
176
     1
 90
        2
176
     1
 90
        3
176
     1
 90
        0
176
     1
 40
0.6
176
     1
 40
30.0
176
     1
 62
     8
420
  8421504
176
     1
 90
        1
176
     1
 90
        4
176
     1
 62
     7
176
     1
 62
   257
176
     1
 90
        1
176
     1
 90
        1
176
     1
 40
1.0
176
     1
 90
        8
176
     1
 62
     8
420
  8421504
176
     1
 40
1.0
176
     1
 90
        1
176
     1
 90
        6
176
     1
 90
        2
176
     1
 62
     7
176
     1
 90
        5
176
     1
 90
        0
176
     1
 90
        0
176
     1
290
     0
176
     1
 90
        1
176
     1
 40
0.0
176
     1
 90
        0
176
     1
290
     0
176
     1
290
     1
176
     1
290
     1
176
     1
290
     0
176
     1
290
     0
176
     1
290
     0
176
     1
290
     0
176
     1
290
     0
176
     1
290
     0
176
     1
 90
       50
176
     1
 40
0.0
176
     1
 40
1.0
176
     1
 90
        0
176
     1
 62
    18
420
        0
176
     1
 90
       50
176
     1
 90
        3
176
     1
 62
     5
420
      255
176
     1
290
     0
176
     1
 90
       50
176
     1
 90
       50
176
     1
 90
       50
176
     1
290
     0
176
     1
 90
       50
176
     1
 62
   256
176
     0
 40
1.0
176
     0
 90
        2
176
     1
  1
strokes_ogs.tif
176
     1
290
     0
176
     1
 40
1.0
176
     1
 40
1.0
176
     1
  0
VISUALSTYLE
  5
A2
102
{ACAD_REACTORS
330
99
102
}
330
99
100
AcDbVisualStyle
  2
Conceptual
 70
     9
177
     3
291
     0
 70
    58
 90
        3
176
     1
 90
        2
176
     1
 90
        1
176
     1
 90
        0
176
     1
 40
0.6
176
     1
 40
30.0
176
     1
 62
     7
420
 16777215
176
     1
 90
        2
176
     1
 90
        2
176
     1
 62
     7
176
     1
 62
   257
176
     1
 90
        1
176
     1
 90
        1
176
     1
 40
40.0
176
     1
 90
        8
176
     1
 62
     7
176
     1
 40
1.0
176
     1
 90
        1
176
     1
 90
        6
176
     1
 90
        2
176
     1
 62
     7
176
     1
 90
        3
176
     1
 90
        0
176
     1
 90
        0
176
     1
290
     0
176
     1
 90
        1
176
     1
 40
0.0
176
     1
 90
        0
176
     1
290
     0
176
     1
290
     1
176
     1
290
     1
176
     1
290
     0
176
     1
290
     0
176
     1
290
     0
176
     1
290
     0
176
     1
290
     0
176
     1
290
     0
176
     1
 90
       50
176
     1
 40
0.0
176
     1
 40
1.0
176
     1
 90
        0
176
     1
 62
    18
420
        0
176
     1
 90
       50
176
     1
 90
        3
176
     1
 62
     5
420
      255
176
     1
290
     0
176
     1
 90
       50
176
     1
 90
       50
176
     1
 90
       50
176
     1
290
     0
176
     1
 90
       50
176
     1
 62
   256
176
     0
 40
1.0
176
     0
 90
        2
176
     1
  1
strokes_ogs.tif
176
     1
290
     0
176
     1
 40
1.0
176
     1
 40
1.0
176
     1
  0
VISUALSTYLE
  5
A4
102
{ACAD_REACTORS
330
99
102
}
330
99
100
AcDbVisualStyle
  2
Dim
 70
    11
177
     3
291
     1
 70
    58
 90
        2
176
     1
 90
        2
176
     1
 90
        1
176
     1
 90
        0
176
     1
 40
0.6
176
     1
 40
30.0
176
     1
 62
     7
420
 16777215
176
     1
 90
        1
176
     1
 90
        4
176
     1
 62
     7
176
     1
 62
   257
176
     1
 90
        1
176
     1
 90
        1
176
     1
 40
1.0
176
     1
 90
        8
176
     1
 62
     7
176
     1
 40
1.0
176
     1
 90
        1
176
     1
 90
        6
176
     1
 90
        2
176
     1
 62
     7
176
     1
 90
        5
176
     1
 90
        0
176
     1
 90
        0
176
     1
290
     0
176
     1
 90
        1
176
     1
 40
-50.0
176
     1
 90
        0
176
     1
290
     0
176
     1
290
     1
176
     1
290
     1
176
     1
290
     0
176
     1
290
     0
176
     1
290
     0
176
     1
290
     0
176
     1
290
     0
176
     1
290
     0
176
     1
 90
       50
176
     1
 40
0.0
176
     1
 40
1.0
176
     1
 90
        0
176
     1
 62
    18
420
        0
176
     1
 90
       50
176
     1
 90
        3
176
     1
 62
     5
420
      255
176
     1
290
     0
176
     1
 90
       50
176
     1
 90
       50
176
     1
 90
       50
176
     1
290
     0
176
     1
 90
       50
176
     1
 62
   256
176
     0
 40
1.0
176
     0
 90
        2
176
     1
  1
strokes_ogs.tif
176
     1
290
     0
176
     1
 40
1.0
176
     1
 40
1.0
176
     1
  0
VISUALSTYLE
  5
175
102
{ACAD_REACTORS
330
99
102
}
330
99
100
AcDbVisualStyle
  2
EdgeColorOff
 70
    22
177
     3
291
     1
 70
    58
 90
        2
176
     0
 90
        2
176
     0
 90
        0
176
     0
 90
        0
176
     0
 40
0.6
176
     0
 40
30.0
176
     0
 62
     7
420
 16777215
176
     0
 90
        1
176
     0
 90
        4
176
     0
 62
     7
176
     0
 62
   257
176
     0
 90
        1
176
     0
 90
        1
176
     0
 40
1.0
176
     0
 90
        8
176
     2
 62
     7
176
     0
 40
1.0
176
     0
 90
        1
176
     0
 90
        6
176
     0
 90
        2
176
     0
 62
     7
176
     0
 90
        5
176
     0
 90
        0
176
     0
 90
        0
176
     0
290
     0
176
     0
 90
        1
176
     0
 40
0.0
176
     0
 90
        0
176
     0
290
     0
176
     1
290
     1
176
     1
290
     1
176
     1
290
     0
176
     1
290
     0
176
     1
290
     0
176
     1
290
     0
176
     1
290
     0
176
     1
290
     0
176
     1
 90
       50
176
     1
 40
0.0
176
     1
 40
1.0
176
     1
 90
        0
176
     1
 62
    18
420
        0
176
     1
 90
       50
176
     1
 90
        3
176
     1
 62
     5
420
      255
176
     1
290
     0
176
     1
 90
       50
176
     1
 90
       50
176
     1
 90
       50
176
     1
290
     0
176
     1
 90
       50
176
     1
 62
   256
176
     0
 40
1.0
176
     0
 90
        2
176
     1
  1
strokes_ogs.tif
176
     1
290
     0
176
     1
 40
1.0
176
     1
 40
1.0
176
     1
  0
VISUALSTYLE
  5
A8
102
{ACAD_REACTORS
330
99
102
}
330
99
100
AcDbVisualStyle
  2
Facepattern
 70
    15
177
     3
291
     1
 70
    58
 90
        2
176
     1
 90
        2
176
     1
 90
        1
176
     1
 90
        0
176
     1
 40
0.6
176
     1
 40
30.0
176
     1
 62
     7
420
 16777215
176
     1
 90
        1
176
     1
 90
        4
176
     1
 62
     7
176
     1
 62
   257
176
     1
 90
        1
176
     1
 90
        1
176
     1
 40
1.0
176
     1
 90
        8
176
     1
 62
     7
176
     1
 40
1.0
176
     1
 90
        1
176
     1
 90
        6
176
     1
 90
        2
176
     1
 62
     7
176
     1
 90
        5
176
     1
 90
        0
176
     1
 90
        0
176
     1
290
     0
176
     1
 90
        1
176
     1
 40
0.0
176
     1
 90
        0
176
     1
290
     0
176
     1
290
     1
176
     1
290
     1
176
     1
290
     0
176
     1
290
     0
176
     1
290
     0
176
     1
290
     0
176
     1
290
     0
176
     1
290
     0
176
     1
 90
       50
176
     1
 40
0.0
176
     1
 40
1.0
176
     1
 90
        0
176
     1
 62
    18
420
        0
176
     1
 90
       50
176
     1
 90
        3
176
     1
 62
     5
420
      255
176
     1
290
     0
176
     1
 90
       50
176
     1
 90
       50
176
     1
 90
       50
176
     1
290
     0
176
     1
 90
       50
176
     1
 62
   256
176
     0
 40
1.0
176
     0
 90
        2
176
     1
  1
strokes_ogs.tif
176
     1
290
     0
176
     1
 40
1.0
176
     1
 40
1.0
176
     1
  0
VISUALSTYLE
  5
9A
102
{ACAD_REACTORS
330
99
102
}
330
99
100
AcDbVisualStyle
  2
Flat
 70
     0
177
     3
291
     1
 70
    58
 90
        2
176
     1
 90
        1
176
     1
 90
        1
176
     1
 90
        2
176
     1
 40
0.6
176
     1
 40
30.0
176
     1
 62
     7
420
 16777215
176
     1
 90
        0
176
     1
 90
        0
176
     1
 62
     7
176
     1
 62
   257
176
     1
 90
        1
176
     1
 90
        1
176
     1
 40
1.0
176
     1
 90
        8
176
     1
 62
     7
176
     1
 40
1.0
176
     1
 90
        1
176
     1
 90
        6
176
     1
 90
        2
176
     1
 62
     7
176
     1
 90
        5
176
     1
 90
        0
176
     1
 90
        0
176
     1
290
     0
176
     1
 90
       13
176
     1
 40
0.0
176
     1
 90
        0
176
     1
290
     0
176
     1
290
     1
176
     1
290
     1
176
     1
290
     0
176
     1
290
     0
176
     1
290
     0
176
     1
290
     0
176
     1
290
     0
176
     1
290
     0
176
     1
 90
       50
176
     1
 40
0.0
176
     1
 40
1.0
176
     1
 90
        0
176
     1
 62
    18
420
        0
176
     1
 90
       50
176
     1
 90
        3
176
     1
 62
     5
420
      255
176
     1
290
     0
176
     1
 90
       50
176
     1
 90
       50
176
     1
 90
       50
176
     1
290
     0
176
     1
 90
       50
176
     1
 62
   256
176
     0
 40
1.0
176
     0
 90
        2
176
     1
  1
strokes_ogs.tif
176
     1
290
     0
176
     1
 40
1.0
176
     1
 40
1.0
176
     1
  0
VISUALSTYLE
  5
9B
102
{ACAD_REACTORS
330
99
102
}
330
99
100
AcDbVisualStyle
  2
FlatWithEdges
 70
     1
177
     3
291
     1
 70
    58
 90
        2
176
     1
 90
        1
176
     1
 90
        1
176
     1
 90
        2
176
     1
 40
0.6
176
     1
 40
30.0
176
     1
 62
     7
420
 16777215
176
     1
 90
        1
176
     1
 90
        0
176
     1
 62
     7
176
     1
 62
   257
176
     1
 90
        1
176
     1
 90
        1
176
     1
 40
1.0
176
     1
 90
        0
176
     1
 62
   257
176
     1
 40
1.0
176
     1
 90
        1
176
     1
 90
        6
176
     1
 90
        2
176
     1
 62
     7
176
     1
 90
        5
176
     1
 90
        0
176
     1
 90
        0
176
     1
290
     0
176
     1
 90
       13
176
     1
 40
0.0
176
     1
 90
        0
176
     1
290
     0
176
     1
290
     1
176
     1
290
     1
176
     1
290
     0
176
     1
290
     0
176
     1
290
     0
176
     1
290
     0
176
     1
290
     0
176
     1
290
     0
176
     1
 90
       50
176
     1
 40
0.0
176
     1
 40
1.0
176
     1
 90
        0
176
     1
 62
    18
420
        0
176
     1
 90
       50
176
     1
 90
        3
176
     1
 62
     5
420
      255
176
     1
290
     0
176
     1
 90
       50
176
     1
 90
       50
176
     1
 90
       50
176
     1
290
     0
176
     1
 90
       50
176
     1
 62
   256
176
     0
 40
1.0
176
     0
 90
        2
176
     1
  1
strokes_ogs.tif
176
     1
290
     0
176
     1
 40
1.0
176
     1
 40
1.0
176
     1
  0
VISUALSTYLE
  5
9C
102
{ACAD_REACTORS
330
99
102
}
330
99
100
AcDbVisualStyle
  2
Gouraud
 70
     2
177
     3
291
     1
 70
    58
 90
        2
176
     1
 90
        2
176
     1
 90
        1
176
     1
 90
        2
176
     1
 40
0.6
176
     1
 40
30.0
176
     1
 62
     7
420
 16777215
176
     1
 90
        0
176
     1
 90
        0
176
     1
 62
     7
176
     1
 62
   257
176
     1
 90
        1
176
     1
 90
        1
176
     1
 40
1.0
176
     1
 90
        0
176
     1
 62
     7
176
     1
 40
1.0
176
     1
 90
        1
176
     1
 90
        6
176
     1
 90
        2
176
     1
 62
     7
176
     1
 90
        5
176
     1
 90
        0
176
     1
 90
        0
176
     1
290
     0
176
     1
 90
       13
176
     1
 40
0.0
176
     1
 90
        0
176
     1
290
     0
176
     1
290
     1
176
     1
290
     1
176
     1
290
     0
176
     1
290
     0
176
     1
290
     0
176
     1
290
     0
176
     1
290
     0
176
     1
290
     0
176
     1
 90
       50
176
     1
 40
0.0
176
     1
 40
1.0
176
     1
 90
        0
176
     1
 62
    18
420
        0
176
     1
 90
       50
176
     1
 90
        3
176
     1
 62
     5
420
      255
176
     1
290
     0
176
     1
 90
       50
176
     1
 90
       50
176
     1
 90
       50
176
     1
290
     0
176
     1
 90
       50
176
     1
 62
   256
176
     0
 40
1.0
176
     0
 90
        2
176
     1
  1
strokes_ogs.tif
176
     1
290
     0
176
     1
 40
1.0
176
     1
 40
1.0
176
     1
  0
VISUALSTYLE
  5
9D
102
{ACAD_REACTORS
330
99
102
}
330
99
100
AcDbVisualStyle
  2
GouraudWithEdges
 70
     3
177
     3
291
     1
 70
    58
 90
        2
176
     1
 90
        2
176
     1
 90
        1
176
     1
 90
        2
176
     1
 40
0.6
176
     1
 40
30.0
176
     1
 62
     7
420
 16777215
176
     1
 90
        1
176
     1
 90
        0
176
     1
 62
     7
176
     1
 62
   257
176
     1
 90
        1
176
     1
 90
        1
176
     1
 40
1.0
176
     1
 90
        0
176
     1
 62
   257
176
     1
 40
1.0
176
     1
 90
        1
176
     1
 90
        6
176
     1
 90
        2
176
     1
 62
     7
176
     1
 90
        5
176
     1
 90
        0
176
     1
 90
        0
176
     1
290
     0
176
     1
 90
       13
176
     1
 40
0.0
176
     1
 90
        0
176
     1
290
     0
176
     1
290
     1
176
     1
290
     1
176
     1
290
     0
176
     1
290
     0
176
     1
290
     0
176
     1
290
     0
176
     1
290
     0
176
     1
290
     0
176
     1
 90
       50
176
     1
 40
0.0
176
     1
 40
1.0
176
     1
 90
        0
176
     1
 62
    18
420
        0
176
     1
 90
       50
176
     1
 90
        3
176
     1
 62
     5
420
      255
176
     1
290
     0
176
     1
 90
       50
176
     1
 90
       50
176
     1
 90
       50
176
     1
290
     0
176
     1
 90
       50
176
     1
 62
   256
176
     0
 40
1.0
176
     0
 90
        2
176
     1
  1
strokes_ogs.tif
176
     1
290
     0
176
     1
 40
1.0
176
     1
 40
1.0
176
     1
  0
VISUALSTYLE
  5
A1
102
{ACAD_REACTORS
330
99
102
}
330
99
100
AcDbVisualStyle
  2
Hidden
 70
     6
177
     3
291
     0
 70
    58
 90
        1
176
     1
 90
        2
176
     1
 90
        2
176
     1
 90
        0
176
     1
 40
0.6
176
     1
 40
30.0
176
     1
 62
     7
420
 16777215
176
     1
 90
        2
176
     1
 90
        2
176
     1
 62
     7
176
     1
 62
   257
176
     1
 90
        2
176
     1
 90
        1
176
     1
 40
40.0
176
     1
 90
        0
176
     1
 62
   257
176
     1
 40
1.0
176
     1
 90
        1
176
     1
 90
        6
176
     1
 90
        2
176
     1
 62
     7
176
     1
 90
        3
176
     1
 90
        0
176
     1
 90
        0
176
     1
290
     0
176
     1
 90
        1
176
     1
 40
0.0
176
     1
 90
        0
176
     1
290
     0
176
     1
290
     1
176
     1
290
     1
176
     1
290
     0
176
     1
290
     0
176
     1
290
     0
176
     1
290
     0
176
     1
290
     0
176
     1
290
     0
176
     1
 90
       50
176
     1
 40
0.0
176
     1
 40
1.0
176
     1
 90
        0
176
     1
 62
    18
420
        0
176
     1
 90
       50
176
     1
 90
        3
176
     1
 62
     5
420
      255
176
     1
290
     0
176
     1
 90
       50
176
     1
 90
       50
176
     1
 90
       50
176
     1
290
     0
176
     1
 90
       50
176
     1
 62
   256
176
     0
 40
1.0
176
     0
 90
        2
176
     1
  1
strokes_ogs.tif
176
     1
290
     0
176
     1
 40
1.0
176
     1
 40
1.0
176
     1
  0
VISUALSTYLE
  5
173
102
{ACAD_REACTORS
330
99
102
}
330
99
100
AcDbVisualStyle
  2
JitterOff
 70
    20
177
     3
291
     1
 70
    58
 90
        2
176
     0
 90
        2
176
     0
 90
        0
176
     0
 90
        0
176
     0
 40
0.6
176
     0
 40
30.0
176
     0
 62
     7
420
 16777215
176
     0
 90
        1
176
     0
 90
        4
176
     0
 62
     7
176
     0
 62
   257
176
     0
 90
        1
176
     0
 90
        1
176
     0
 40
1.0
176
     0
 90
       10
176
     2
 62
     7
176
     0
 40
1.0
176
     0
 90
        1
176
     0
 90
        6
176
     0
 90
        2
176
     0
 62
     7
176
     0
 90
        5
176
     0
 90
        0
176
     0
 90
        0
176
     0
290
     0
176
     0
 90
        1
176
     0
 40
0.0
176
     0
 90
        0
176
     0
290
     0
176
     1
290
     1
176
     1
290
     1
176
     1
290
     0
176
     1
290
     0
176
     1
290
     0
176
     1
290
     0
176
     1
290
     0
176
     1
290
     0
176
     1
 90
       50
176
     1
 40
0.0
176
     1
 40
1.0
176
     1
 90
        0
176
     1
 62
    18
420
        0
176
     1
 90
       50
176
     1
 90
        3
176
     1
 62
     5
420
      255
176
     1
290
     0
176
     1
 90
       50
176
     1
 90
       50
176
     1
 90
       50
176
     1
290
     0
176
     1
 90
       50
176
     1
 62
   256
176
     0
 40
1.0
176
     0
 90
        2
176
     1
  1
strokes_ogs.tif
176
     1
290
     0
176
     1
 40
1.0
176
     1
 40
1.0
176
     1
  0
VISUALSTYLE
  5
A7
102
{ACAD_REACTORS
330
99
102
}
330
99
100
AcDbVisualStyle
  2
Linepattern
 70
    14
177
     3
291
     1
 70
    58
 90
        2
176
     1
 90
        2
176
     1
 90
        1
176
     1
 90
        0
176
     1
 40
0.6
176
     1
 40
30.0
176
     1
 62
     7
420
 16777215
176
     1
 90
        1
176
     1
 90
        4
176
     1
 62
     7
176
     1
 62
   257
176
     1
 90
        7
176
     1
 90
        7
176
     1
 40
1.0
176
     1
 90
        8
176
     1
 62
     7
176
     1
 40
1.0
176
     1
 90
        1
176
     1
 90
        6
176
     1
 90
        2
176
     1
 62
     7
176
     1
 90
        5
176
     1
 90
        0
176
     1
 90
        0
176
     1
290
     0
176
     1
 90
        1
176
     1
 40
0.0
176
     1
 90
        0
176
     1
290
     0
176
     1
290
     1
176
     1
290
     1
176
     1
290
     0
176
     1
290
     0
176
     1
290
     0
176
     1
290
     0
176
     1
290
     0
176
     1
290
     0
176
     1
 90
       50
176
     1
 40
0.0
176
     1
 40
1.0
176
     1
 90
        0
176
     1
 62
    18
420
        0
176
     1
 90
       50
176
     1
 90
        3
176
     1
 62
     5
420
      255
176
     1
290
     0
176
     1
 90
       50
176
     1
 90
       50
176
     1
 90
       50
176
     1
290
     0
176
     1
 90
       50
176
     1
 62
   256
176
     0
 40
1.0
176
     0
 90
        2
176
     1
  1
strokes_ogs.tif
176
     1
290
     0
176
     1
 40
1.0
176
     1
 40
1.0
176
     1
  0
VISUALSTYLE
  5
174
102
{ACAD_REACTORS
330
99
102
}
330
99
100
AcDbVisualStyle
  2
OverhangOff
 70
    21
177
     3
291
     1
 70
    58
 90
        2
176
     0
 90
        2
176
     0
 90
        0
176
     0
 90
        0
176
     0
 40
0.6
176
     0
 40
30.0
176
     0
 62
     7
420
 16777215
176
     0
 90
        1
176
     0
 90
        4
176
     0
 62
     7
176
     0
 62
   257
176
     0
 90
        1
176
     0
 90
        1
176
     0
 40
1.0
176
     0
 90
        9
176
     2
 62
     7
176
     0
 40
1.0
176
     0
 90
        1
176
     0
 90
        6
176
     0
 90
        2
176
     0
 62
     7
176
     0
 90
        5
176
     0
 90
        0
176
     0
 90
        0
176
     0
290
     0
176
     0
 90
        1
176
     0
 40
0.0
176
     0
 90
        0
176
     0
290
     0
176
     1
290
     1
176
     1
290
     1
176
     1
290
     0
176
     1
290
     0
176
     1
290
     0
176
     1
290
     0
176
     1
290
     0
176
     1
290
     0
176
     1
 90
       50
176
     1
 40
0.0
176
     1
 40
1.0
176
     1
 90
        0
176
     1
 62
    18
420
        0
176
     1
 90
       50
176
     1
 90
        3
176
     1
 62
     5
420
      255
176
     1
290
     0
176
     1
 90
       50
176
     1
 90
       50
176
     1
 90
       50
176
     1
290
     0
176
     1
 90
       50
176
     1
 62
   256
176
     0
 40
1.0
176
     0
 90
        2
176
     1
  1
strokes_ogs.tif
176
     1
290
     0
176
     1
 40
1.0
176
     1
 40
1.0
176
     1
  0
VISUALSTYLE
  5
A3
102
{ACAD_REACTORS
330
99
102
}
330
99
100
AcDbVisualStyle
  2
Realistic
 70
     8
177
     3
291
     0
 70
    58
 90
        2
176
     1
 90
        3
176
     1
 90
        0
176
     1
 90
        2
176
     1
 40
0.6
176
     1
 40
30.0
176
     1
 62
     7
420
 16777215
176
     1
 90
        0
176
     1
 90
        0
176
     1
 62
     7
176
     1
 62
   257
176
     1
 90
        1
176
     1
 90
        1
176
     1
 40
1.0
176
     1
 90
        8
176
     1
 62
   257
176
     1
 40
1.0
176
     1
 90
        1
176
     1
 90
        6
176
     1
 90
        2
176
     1
 62
     7
176
     1
 90
        3
176
     1
 90
        0
176
     1
 90
        0
176
     1
290
     0
176
     1
 90
       13
176
     1
 40
0.0
176
     1
 90
        0
176
     1
290
     0
176
     1
290
     1
176
     1
290
     1
176
     1
290
     0
176
     1
290
     0
176
     1
290
     0
176
     1
290
     0
176
     1
290
     0
176
     1
290
     0
176
     1
 90
       50
176
     1
 40
0.0
176
     1
 40
1.0
176
     1
 90
        0
176
     1
 62
    18
420
        0
176
     1
 90
       50
176
     1
 90
        3
176
     1
 62
     5
420
      255
176
     1
290
     0
176
     1
 90
       50
176
     1
 90
       50
176
     1
 90
       50
176
     1
290
     0
176
     1
 90
       50
176
     1
 62
   256
176
     0
 40
1.0
176
     0
 90
        2
176
     1
  1
strokes_ogs.tif
176
     1
290
     0
176
     1
 40
1.0
176
     1
 40
1.0
176
     1
  0
VISUALSTYLE
  5
182
102
{ACAD_REACTORS
330
99
102
}
330
99
100
AcDbVisualStyle
  2
Shaded
 70
    27
177
     3
291
     0
 70
    58
 90
        2
176
     1
 90
        2
176
     1
 90
        1
176
     1
 90
        2
176
     1
 40
0.6
176
     1
 40
30.0
176
     1
 62
     7
420
 16777215
176
     1
 90
        0
176
     1
 90
        4
176
     1
 62
     7
176
     1
 62
   257
176
     1
 90
        1
176
     1
 90
        1
176
     1
 40
1.0
176
     1
 90
        8
176
     1
 62
   257
176
     1
 40
1.0
176
     1
 90
        1
176
     1
 90
        6
176
     1
 90
        2
176
     1
 62
     8
420
  7895160
176
     1
 90
        3
176
     1
 90
        0
176
     1
 90
        0
176
     1
290
     0
176
     1
 90
        5
176
     1
 40
0.0
176
     1
 90
        0
176
     1
290
     0
176
     1
290
     1
176
     1
290
     1
176
     1
290
     0
176
     1
290
     0
176
     1
290
     0
176
     1
290
     0
176
     1
290
     0
176
     1
290
     0
176
     1
 90
       50
176
     1
 40
0.0
176
     1
 40
1.0
176
     1
 90
        0
176
     1
 62
    18
420
        0
176
     1
 90
       50
176
     1
 90
        3
176
     1
 62
     5
420
      255
176
     1
290
     0
176
     1
 90
       50
176
     1
 90
       50
176
     1
 90
       50
176
     1
290
     0
176
     1
 90
       50
176
     1
 62
   256
176
     0
 40
1.0
176
     0
 90
        2
176
     1
  1
strokes_ogs.tif
176
     1
290
     0
176
     1
 40
1.0
176
     1
 40
1.0
176
     1
  0
VISUALSTYLE
  5
181
102
{ACAD_REACTORS
330
99
102
}
330
99
100
AcDbVisualStyle
  2
Shaded with edges
 70
    26
177
     3
291
     0
 70
    58
 90
        2
176
     1
 90
        2
176
     1
 90
        1
176
     1
 90
        2
176
     1
 40
0.6
176
     1
 40
30.0
176
     1
 62
     7
420
 16777215
176
     1
 90
        1
176
     1
 90
       10
176
     1
 62
     7
176
     1
 62
   257
176
     1
 90
        2
176
     1
 90
        1
176
     1
 40
1.0
176
     1
 90
        8
176
     1
 62
   257
176
     1
 40
1.0
176
     1
 90
        1
176
     1
 90
        6
176
     1
 90
        2
176
     1
 62
     7
176
     1
 90
        3
176
     1
 90
        0
176
     1
 90
        0
176
     1
290
     0
176
     1
 90
        5
176
     1
 40
0.0
176
     1
 90
        0
176
     1
290
     0
176
     1
290
     1
176
     1
290
     1
176
     1
290
     0
176
     1
290
     0
176
     1
290
     0
176
     1
290
     0
176
     1
290
     0
176
     1
290
     0
176
     1
 90
       50
176
     1
 40
0.0
176
     1
 40
1.0
176
     1
 90
        0
176
     1
 62
    18
420
        0
176
     1
 90
       50
176
     1
 90
        3
176
     1
 62
     5
420
      255
176
     1
290
     0
176
     1
 90
       50
176
     1
 90
       50
176
     1
 90
       50
176
     1
290
     0
176
     1
 90
       50
176
     1
 62
   256
176
     0
 40
1.0
176
     0
 90
        2
176
     1
  1
strokes_ogs.tif
176
     1
290
     0
176
     1
 40
1.0
176
     1
 40
1.0
176
     1
  0
VISUALSTYLE
  5
17E
102
{ACAD_REACTORS
330
99
102
}
330
99
100
AcDbVisualStyle
  2
Shades of Gray
 70
    23
177
     3
291
     0
 70
    58
 90
        2
176
     1
 90
        2
176
     1
 90
        3
176
     1
 90
        0
176
     1
 40
0.6
176
     1
 40
30.0
176
     1
 62
     7
420
 16777215
176
     1
 90
        2
176
     1
 90
        2
176
     1
 62
     7
176
     1
 62
     7
176
     1
 90
        1
176
     1
 90
        1
176
     1
 40
40.0
176
     1
 90
        8
176
     1
 62
     7
176
     1
 40
1.0
176
     1
 90
        1
176
     1
 90
        6
176
     1
 90
        2
176
     1
 62
     7
176
     1
 90
        3
176
     1
 90
        0
176
     1
 90
        0
176
     1
290
     0
176
     1
 90
        1
176
     1
 40
0.0
176
     1
 90
        0
176
     1
290
     0
176
     1
290
     1
176
     1
290
     1
176
     1
290
     0
176
     1
290
     0
176
     1
290
     0
176
     1
290
     0
176
     1
290
     0
176
     1
290
     0
176
     1
 90
       50
176
     1
 40
0.0
176
     1
 40
1.0
176
     1
 90
        0
176
     1
 62
    18
420
        0
176
     1
 90
       50
176
     1
 90
        3
176
     1
 62
     5
420
      255
176
     1
290
     0
176
     1
 90
       50
176
     1
 90
       50
176
     1
 90
       50
176
     1
290
     0
176
     1
 90
       50
176
     1
 62
   256
176
     0
 40
1.0
176
     0
 90
        2
176
     1
  1
strokes_ogs.tif
176
     1
290
     0
176
     1
 40
1.0
176
     1
 40
1.0
176
     1
  0
VISUALSTYLE
  5
17F
102
{ACAD_REACTORS
330
99
102
}
330
99
100
AcDbVisualStyle
  2
Sketchy
 70
    24
177
     3
291
     0
 70
    58
 90
        1
176
     1
 90
        2
176
     1
 90
        2
176
     1
 90
        0
176
     1
 40
0.6
176
     1
 40
30.0
176
     1
 62
     7
420
 16777215
176
     1
 90
        2
176
     1
 90
        2
176
     1
 62
     7
176
     1
 62
     7
176
     1
 90
        1
176
     1
 90
        1
176
     1
 40
40.0
176
     1
 90
       11
176
     1
 62
     7
176
     1
 40
1.0
176
     1
 90
        1
176
     1
 90
        6
176
     1
 90
        2
176
     1
 62
     7
176
     1
 90
        6
176
     1
 90
        0
176
     1
 90
        0
176
     1
290
     0
176
     1
 90
        1
176
     1
 40
0.0
176
     1
 90
        0
176
     1
290
     0
176
     1
290
     1
176
     1
290
     1
176
     1
290
     0
176
     1
290
     0
176
     1
290
     0
176
     1
290
     0
176
     1
290
     0
176
     1
290
     0
176
     1
 90
       50
176
     1
 40
0.0
176
     1
 40
1.0
176
     1
 90
        0
176
     1
 62
    18
420
        0
176
     1
 90
       50
176
     1
 90
        3
176
     1
 62
     5
420
      255
176
     1
290
     0
176
     1
 90
       50
176
     1
 90
       50
176
     1
 90
       50
176
     1
290
     0
176
     1
 90
       50
176
     1
 62
   256
176
     0
 40
1.0
176
     0
 90
        2
176
     1
  1
strokes_ogs.tif
176
     1
290
     0
176
     1
 40
1.0
176
     1
 40
1.0
176
     1
  0
VISUALSTYLE
  5
A6
102
{ACAD_REACTORS
330
99
102
}
330
99
100
AcDbVisualStyle
  2
Thicken
 70
    13
177
     3
291
     1
 70
    58
 90
        2
176
     1
 90
        2
176
     1
 90
        1
176
     1
 90
        0
176
     1
 40
0.6
176
     1
 40
30.0
176
     1
 62
     7
420
 16777215
176
     1
 90
        1
176
     1
 90
        4
176
     1
 62
     7
176
     1
 62
   257
176
     1
 90
        1
176
     1
 90
        1
176
     1
 40
1.0
176
     1
 90
       12
176
     1
 62
     7
176
     1
 40
1.0
176
     1
 90
        1
176
     1
 90
        6
176
     1
 90
        2
176
     1
 62
     7
176
     1
 90
        5
176
     1
 90
        0
176
     1
 90
        0
176
     1
290
     0
176
     1
 90
        1
176
     1
 40
0.0
176
     1
 90
        0
176
     1
290
     0
176
     1
290
     1
176
     1
290
     1
176
     1
290
     0
176
     1
290
     0
176
     1
290
     0
176
     1
290
     0
176
     1
290
     0
176
     1
290
     0
176
     1
 90
       50
176
     1
 40
0.0
176
     1
 40
1.0
176
     1
 90
        0
176
     1
 62
    18
420
        0
176
     1
 90
       50
176
     1
 90
        3
176
     1
 62
     5
420
      255
176
     1
290
     0
176
     1
 90
       50
176
     1
 90
       50
176
     1
 90
       50
176
     1
290
     0
176
     1
 90
       50
176
     1
 62
   256
176
     0
 40
1.0
176
     0
 90
        2
176
     1
  1
strokes_ogs.tif
176
     1
290
     0
176
     1
 40
1.0
176
     1
 40
1.0
176
     1
  0
VISUALSTYLE
  5
A0
102
{ACAD_REACTORS
330
99
102
}
330
99
100
AcDbVisualStyle
  2
Wireframe
 70
     5
177
     3
291
     0
 70
    58
 90
        0
176
     1
 90
        2
176
     1
 90
        0
176
     1
 90
        0
176
     1
 40
0.6
176
     1
 40
30.0
176
     1
 62
     7
420
 16777215
176
     1
 90
        1
176
     1
 90
        4
176
     1
 62
     7
176
     1
 62
   257
176
     1
 90
        1
176
     1
 90
        1
176
     1
 40
1.0
176
     1
 90
        0
176
     1
 62
   257
176
     1
 40
1.0
176
     1
 90
        1
176
     1
 90
        6
176
     1
 90
        2
176
     1
 62
     7
176
     1
 90
        3
176
     1
 90
        0
176
     1
 90
        0
176
     1
290
     0
176
     1
 90
        1
176
     1
 40
0.0
176
     1
 90
        0
176
     1
290
     0
176
     1
290
     1
176
     1
290
     1
176
     1
290
     0
176
     1
290
     0
176
     1
290
     0
176
     1
290
     0
176
     1
290
     0
176
     1
290
     0
176
     1
 90
       50
176
     1
 40
0.0
176
     1
 40
1.0
176
     1
 90
        0
176
     1
 62
    18
420
        0
176
     1
 90
       50
176
     1
 90
        3
176
     1
 62
     5
420
      255
176
     1
290
     0
176
     1
 90
       50
176
     1
 90
       50
176
     1
 90
       50
176
     1
290
     0
176
     1
 90
       50
176
     1
 62
   256
176
     0
 40
1.0
176
     0
 90
        2
176
     1
  1
strokes_ogs.tif
176
     1
290
     0
176
     1
 40
1.0
176
     1
 40
1.0
176
     1
  0
VISUALSTYLE
  5
180
102
{ACAD_REACTORS
330
99
102
}
330
99
100
AcDbVisualStyle
  2
X-Ray
 70
    25
177
     3
291
     0
 70
    58
 90
        2
176
     1
 90
        2
176
     1
 90
        1
176
     1
 90
        1
176
     1
 40
0.5
176
     1
 40
30.0
176
     1
 62
     7
420
 16777215
176
     1
 90
        1
176
     1
 90
        0
176
     1
 62
     7
176
     1
 62
   257
176
     1
 90
        1
176
     1
 90
        1
176
     1
 40
1.0
176
     1
 90
        8
176
     1
 62
     7
176
     1
 40
1.0
176
     1
 90
        1
176
     1
 90
        6
176
     1
 90
        2
176
     1
 62
     7
176
     1
 90
        3
176
     1
 90
        0
176
     1
 90
        0
176
     1
290
     0
176
     1
 90
       13
176
     1
 40
0.0
176
     1
 90
        0
176
     1
290
     0
176
     1
290
     1
176
     1
290
     1
176
     1
290
     0
176
     1
290
     0
176
     1
290
     0
176
     1
290
     0
176
     1
290
     0
176
     1
290
     0
176
     1
 90
       50
176
     1
 40
0.0
176
     1
 40
1.0
176
     1
 90
        0
176
     1
 62
    18
420
        0
176
     1
 90
       50
176
     1
 90
        3
176
     1
 62
     5
420
      255
176
     1
290
     0
176
     1
 90
       50
176
     1
 90
       50
176
     1
 90
       50
176
     1
290
     0
176
     1
 90
       50
176
     1
 62
   256
176
     0
 40
1.0
176
     0
 90
        2
176
     1
  1
strokes_ogs.tif
176
     1
290
     0
176
     1
 40
1.0
176
     1
 40
1.0
176
     1
  0
DICTIONARYVAR
  5
F0
102
{ACAD_REACTORS
330
66
102
}
330
66
100
DictionaryVariables
280
     0
  1
1:1
  0
DICTIONARYVAR
  5
EF
102
{ACAD_REACTORS
330
66
102
}
330
66
100
DictionaryVariables
280
     0
  1
STANDARD
  0
DICTIONARYVAR
  5
89
102
{ACAD_REACTORS
330
66
102
}
330
66
100
DictionaryVariables
280
     0
  1
STANDARD
  0
DICTIONARYVAR
  5
1B7
102
{ACAD_REACTORS
330
66
102
}
330
66
100
DictionaryVariables
280
     0
  1
Imperial24
  0
DICTIONARYVAR
  5
1B8
102
{ACAD_REACTORS
330
66
102
}
330
66
100
DictionaryVariables
280
     0
  1
Imperial24
  0
DICTIONARYVAR
  5
67
102
{ACAD_REACTORS
330
66
102
}
330
66
100
DictionaryVariables
280
     0
  1
2
  0
DICTIONARYVAR
  5
6B
102
{ACAD_REACTORS
330
66
102
}
330
66
100
DictionaryVariables
280
     0
  1
1
  0
DICTIONARYVAR
  5
14D
102
{ACAD_REACTORS
330
66
102
}
330
66
100
DictionaryVariables
280
     0
  1
0
  0
DICTIONARYVAR
  5
14E
102
{ACAD_REACTORS
330
66
102
}
330
66
100
DictionaryVariables
280
     0
  1
0
  0
DICTIONARY
  5
1C6
330
1AC
100
AcDbDictionary
280
     1
281
     1
  3
ACAD_XREC_ROUNDTRIP
360
576
  0
DICTIONARY
  5
56B
330
1FA
100
AcDbDictionary
280
     1
281
     1
  3
ACAD_XREC_ROUNDTRIP
360
578
  0
DICTIONARY
  5
194
330
22
100
AcDbDictionary
280
     1
281
     1
  0
DICTIONARY
  5
188
330
97
100
AcDbDictionary
280
     1
281
     1
  3
FBXASSET
360
189
  0
DICTIONARY
  5
186
330
96
100
AcDbDictionary
280
     1
281
     1
  3
FBXASSET
360
187
  0
DICTIONARY
  5
110
330
98
100
AcDbDictionary
280
     1
281
     1
  3
BUMPTILE
360
112
  3
DIFFUSETILE
360
111
  3
FBXASSET
360
18A
  3
OPACITYTILE
360
113
  3
REFLECTIONTILE
360
114
  0
DICTIONARY
  5
1C4
330
1AA
100
AcDbDictionary
280
     1
281
     1
  3
ACAD_XREC_ROUNDTRIP
360
575
  0
DICTIONARY
  5
569
330
1F9
100
AcDbDictionary
280
     1
281
     1
  3
ACAD_XREC_ROUNDTRIP
360
577
  0
DICTIONARY
  5
104
330
87
100
AcDbDictionary
280
     1
281
     1
  3
ACAD_ROUNDTRIP_2008_TABLESTYLE_CELLSTYLEMAP
360
574
  0
XRECORD
  5
576
102
{ACAD_REACTORS
330
1C6
102
}
330
1C6
100
AcDbXrecord
280
     1
102
DISPLAYNAME
  1
Imperial24
102
FLAGS
 90
        0
  0
XRECORD
  5
578
102
{ACAD_REACTORS
330
56B
102
}
330
56B
100
AcDbXrecord
280
     1
102
DISPLAYNAME
  1
Metric50
102
FLAGS
 90
        0
  0
XRECORD
  5
189
102
{ACAD_REACTORS
330
188
102
}
330
188
100
AcDbXrecord
280
     1
 70
     1
 90
429727718
  1
508B35C9-AEE7-456F-BE74-D52651303AC6
310
504B03040A0000080000B670623B3DEE336E79000000790000001B0000006175746F6465736B2D64657369676E2D7061636B6167652E786D6C3C3F786D6C2076657273696F6E3D22312E302220656E636F64696E673D227574662D3822203F3E3C666F726D6174733E3C666F726D61743E687474703A2F2F736368656D612E
310
6175746F6465736B2E636F6D2F64657369676E2D7061636B6167652F323030393C2F666F726D61743E3C2F666F726D6174733E504B0304140006080800B670623BD486FD9CA0000000F4000000130000005B436F6E74656E745F54797065735D2E786D6C7D8EC10E82300C865F65E91D8A1E8C310C0EEA1BF002731658846E
310
D98AC1B77784ABF1D8FE5FBFBF75BBCE937A534CCEB38643598122B6FEE978D0B0485F9C41B54DDD7D022595594E1A469170414C76A4D9A4D207E29CF43ECE46F218070CC6BECC4078ACAA135ACF422C856C0E68EA1BF5669944DDD7BCDE7B1F8E415D77AECB980613C2E4AC91FC167A2B244592486606FC29C8FD7F045B9A
310
EF7053A7E60B504B0304140006080800B670623B28ED286BEB0000007C01000008000000636F72652E786D6C8D90416EC3201045AF82665B6183218D6D61A254764FD00B204C5C94182C03558F5F9C3852BBEB6A467FFE9B197D71FA9E6FE8CBACC17AD7012D0820E3B41FAD9B3A48F1826B40272956EFE32F1B20A766D3C1
310
268314D3EAD3B24BDABB685CCCAAF3A3D94515828980F42D371D04FD696655A814B3235C8B45E9AB9A4C419F5D8653B2237A1CB163DE672FD6AC209BF3C08E0D1B30EB19C3FC9D72FCC6EB231EFA33EDE96BDD341517E5064B11EDFCBCAF57A3A2194156843498524CAA0FCA5B7268F9E185D42D21A2DCEC7FA0B48CFF8492
310
759155FBBB0F2C80A4F991FB408A72CB22977B50B96EB9C91F504B0304140006080800B670623B55019EA25F0000007C00000007000000636E782E786D6C4DCB3B0E80201045D1AD90E915ED2CF8AC45050C11660C8261F98AB1B07AC9C97D42D718D865D3E909258CFD00CCE24AC6E326A164D74DC0B4128928FF32603847
310
2BA13128B1252AC747C6BAB984FC68F0B87FE8960A5C09FE86CFB69FBA01504B0304140006080800B670623B7BC41AC871010000D40300000C0000006662782F636F72652E786D6CC553ED6E8320147D15C2DF4501B56B6D90A64BBB27D80B50A5CE54C120983EFEAE1F4DD7A56BBA5FF3879273EEE59E7310BE393735EA95
310
ED2AA333CC428A91D2B9292A5D66D8BB63B0C26823B835C67D2BC348CB46657880B1E0A535BE9DA1DC68A7B403549B42CDA0EC3AE530CA6B5864B8CB3F552343E91D5474A7B095F949962A6421D0502778E72C0840D390E18DC5F170E664C205F7BE2A66B62A605A75AC94C522DDEEE3651AEF837817C741F2CE92E02D592D
310
83FD6ECB76EC7595A651C2C9D02CB8AB9A8BBADC2AE954814544691A3016D0E883256BBA58278B17BA5A53CAC9507ED3E4DBE2C9265F691747B3DCA9ADC382819091F8E1162272A8933DE82182932144F88C09DF060D8140C84E1EEA8B8F1340BDCA9DB1093085F157AA97B557309586747CD0EF0B4EA64E983A6E0EAEEFCE
310
889E9EF17847386AA94B30211D2C0FDE0D3AF9A4610EAD5536E8DD1969631B593F67E381C33F5157F17725E5A636F6BF1491F980C8FC7B90E13E8A2F504B0304140006080800B670623B70102A487D0000009D0000000B0000006662782F636E782E786D6C4DCCD10A83201886E15B91FFDC95A5C30335ACCDFB886521330D
310
A76397BF1A1DECE883878F57749FD5A3B74D2F17830472A901D9F088930B8B849267CC01754AA418F3DF0D5018572BE160506249B16C274D761E8BCFBB7A179E27F65CB39A0F14D396184C9921B81F34C3ACA1B4B99ABB6E6F062A25AA5F69DF23ACBE504B0304140006080800B670623B3610CA3329010000120200003100
310
00006662782F42384135303843342D343331462D343546312D424341352D3532343432364645413344462F636F72652E786D6C8D515B6EC32010BC0AE22B55850D0E446E848992B43E412FE000495162B07854397EA176A4F62F3F2C9A9D991D58BEBB8F37F0AD7D30CE76905418026DA553C65E3A98E219B510EC04F7CEC5
310
3F3408EC30EA0E16180A7EF12E4D0B249D8DDAC68C5AA7F4020E21E80881BCE54B0783FCD2E3500D296646B856D320AFC34557A4CAEDCC133C449F0380794839A138B47B86DB2345744D7A44594FD0E1B867883594369BFE63BF7EEF793D0B054FC9A8456E548E63CE46FB674D8A58F068C6477CE9F510B582A2C1F80D1182
310
70F349E816B32D65AFB8DD62CCEB42FF274A937A52948C8DEB66893BCB021484D7734370E5D2E9F608A3EF93F3119479ABA0E50B14B8C298119A43CCC4FCFCECB8A18B6388CEE7EF5D5D4F994BD86CBBA182D76543B9FCAE2FD7B24DF103504B0304140006080800B670623B1B8617914E0100003303000030000000666278
310
2F42384135303843342D343331462D343546312D424341352D3532343432364645413344462F636E782E786D6CD593C16EC32010447F0571AD6CE3D489D20813A9877E410FBD62D82434182CC055F3F75D1292E692438FBD206B7698593D61BEFD1E2DF982108D773D6D6B460938E5B571FB9ECE6957AD29D90A1EBC4F7736
310
4A9C1CA1A759A682EF839FA72269D8C9D92654AD71C72206887E0E0A22CAF926B15E498B01E0AA19451807D01A34B919F16B070157417138917400F2F6FA41FCF0092A45DEE414C19BDC21783E4BD39D891265658C3D8DEA00A3ACE59CBC8678ACB54CB26EEB6BD7839D7E9348BE70AD9C8321B9BCA7F9A4A26C542347DEE0
310
50F09802D22BA6749A800A394DD62899107273365E3C82CFC6A55557BC06C10774B7ABE7AEC3B0F34CF06446280E154026D0542C187BA9DAB6628BF7B6DBB0E5A65B3EB1F58631DE64BBE083F7B65CC218087E22CABB042E51D1F2268F1FE12B3EA24D40D63E9CFE00120194D60B9D5BC67FE6D39CDF37E20AF817881F504B
310
0304140006080800B670623BBFEF2E3B690500003C100000340000006662782F42384135303843342D343331462D343546312D424341352D3532343432364645413344462F6F626A656374732E786D6CAD575D739B3814FD2B0CFB0C98D84E931D4227B6938EA793B6534F3BFB90198F0099B001899144EAECAFDF231018B0
310
D37A3FFC609090EEE7B94757C1FB7D915B2F54C88CB31BDB7727B64559CC938CA53776A576CE956DBD0F03C1B9EA2DB32D460A7A63EB693B0C52C1ABD24C257447AA5C8D66EF177F5832A68CDA569C13296F6C193FD182B8A4523CA1F2D94D88226EBADBBBBEDB2C1C8A4D05299F46424B222853B014F30C52ACC6287F389C
310
D85E1878FA7B18E87FB36AFAF62AAFF667A83F635211161F291B8999FAB3D5DDC5FCDA99CF6653677679E13B8BFBC5CAF1DF4D27CBCBE5F2FAF6EE1A8AA51290642C117467871F101B91C581D77CEA2C36869F3229E68CD1B8F61F1ED6361B89092D294B90C78C4A68EB793D190E7D1D9BDEE7A91E1B95FDE9F3BCEAEFE809
310
6A6D6F9F7D4B79F4275C90E7A04248AA51D5C4C738DAE06F72885AC4796EBE65D22A88A22223B995679120E2D50EB1542F098381188D4EA111AE3DB043FF20AF6F2B4AE3D7D83D65E5AECA730D4D3BAC91BD05FEA992B565D95F549CD6069B90AB2A63EACA38A45E4B6A87D781574F86817E4C2FCCC72690D62E2729520E37
310
9BAF234797BAF6D62B3BFC781FED37BA1E4F2B2F052FA9501A3E80569BB8F6A9A364D4FA67654E6F803383981F82F21591FF84F23D9882BC896C3FDBCF8C162508933B2E0AE4C69DD43F6BD2BE38DDDBF10BF86CB4FA784D37F3AF16075E67EC9030DECA1FC0A55373F5DFF3378C591FA9BDF485C10B0A8C8BA909E5262639
310
A8E72163488806A595734C81CB77D1DE0ED7604A303B76913CEC0272F412782FF88EFF4636D8AA56DF7B322474C4B767303F625997056C7B032C473C592B36CEBD15F3F9FF5233B7ABCDC74D257624A60F8658567497B14CE1EC3C80B76FD02011038F9EE9EB0F2E12387A9C844D3F09855125116D1D731DF8B43D2CF4E0A0
310
79A020C6BE946BCE0B7EA1E1219331CD73C228AF5A2DDD31A4B1DA918CE91350854D40A71723140BFA92E94E62B0626016CEFA5864A50E5977E8753CEDBEE1CBB7F52780D20E17AF0BA0F5F9B02A3AD07DCC732EB6D1EBB661421BE0C39E21BABF0FE16D22EA6929407C8DE596724C88B749B6DB5512BC7B228ADFD7CB7EA6
310
3A22397E690BA8D5D8D4E40CEC8CDA23C2C0B7D5898640101CEC9C6D331CE328CB93CAFBBAC70A642DF70DF95155945B52F08AA973C23469FD69ADEF84F7BB18F983A8F8C90E37F5D35980B2139A1C523540813E824EF83448CF7C72B598CE97D7CEEDDDDD3B6736BFBC771677EF66CE6A7E7139F7A793E9EDF2B2B3A8B624
310
0CDA13AA5F8388264EC4A0129909F3B7F5A16CEDF08128E97D680ACA4B9BE7B7B58BB638F0B00700EF36AE8B32A705658A68F83EE897FC2B41573190D1CCAF0B92D233A47CFEB019D9809933F67DD1A5467F8CF69AD9A5AE859342D45355448C64F968A371DC2D596ADC6E43D93D1B466F877A64E2893E54F23C4B40388995
310
525E5005DA3983ED45412510D3EFCA13737B3863F74BD30F2A12E5B4B5E489A025CE25500DB855B11ACE5BBFA185D35DD48D8DC3CE7DC69F2944DB42AA6F6CF09BCA622ADD08C7A36E7C6AE18000BAB08E040135C2D21C9D75B3A91B77BB746C403F38018DFE6EC939DD92F16B40BC05294B9CDA035AAD6D330AE27FE4786B
310
8E45145EA34A75BE1C263A676A35A8ACC6297337400BF16C54EF515F3F77CB77EB3583889C754FFA29081AA98E2222ADEF05DA3E63D2EDEA8B8756C05A7FB6CABC4A91CBF325398202CC952E70A008A830324BA200D5E5EF8F5F04C75DB4B0EE3340E071C98B823333B83577596BF3849B69F2085AA0FAFA212F26BEFF5877
310
FDE622B28D88A42E49E43326DA82D31E8CB006401E1DA726059ECEC168F97A6599036306A135688F9AD2E61A6EA178F4CD51974A9F2CCB9F36FE5EBD14601068D9C3BF01504B0304140006080000B670623B000000000000000000000000350000006662782F42384135303843342D343331462D343546312D424341352D35
310
32343432364645413344462F76657274696365732E62696E504B0304140006080800B670623BF270F1330600000004000000360000006662782F42384135303843342D343331462D343546312D424341352D3532343432364645413344462F747269616E676C65732E62696E636660600000504B0304140006080000B67062
310
3B000000000000000000000000370000006662782F42384135303843342D343331462D343546312D424341352D3532343432364645413344462F617474726962757465732E62696E504B0304140006080800B670623B08DA0BD19000000041010000360000006662782F42384135303843342D343331462D343546312D4243
310
41352D3532343432364645413344462F6469726563746F72792E786D6C858F410AC3201045AF22B36F53E9A60B35CBEEBAE80D244E44489C6234F4F835464A48035D0DF398FF9F8AF63D0E6CC63039F212F8F9020C7D47C6792B21C5FE7403D62A1188E2E60C98D7234A5830286103A55745067B9D86B8A3CF9C7F90C11DE6
310
07FB144396D7B6A82D282E9A152AD114D5EF2CB866EEE831B8EEA07A7BB5A8D7D61A2BAAEB7FD5F70921FF497D00504B0304140006080800B670623B3B4606F3FE000000A00100003B0000006662782F42384135303843342D343331462D343546312D424341352D3532343432364645413344462F7265736F75726365732F
310
636F72652E786D6C8D504B6E833010BD0A9A6D65B08134808CA354A427E8052C332156828DFCA97AFC9A40A576D7CDCCE87D344F8F9FBEE647F689CE6B6B7A6039850C8DB2A336530F315C4903D94970676DF82583CCC8197B5861107C72362E3BA4AC096842428D1D7107A5F71820538F74F4E0D50D6799CB1892C2DFF345
310
AABB9C306779A2934E701F5C0A906D4FD609C2A1B7D129F4BCD858C163D4E3AED163FAA9AF1A1D88F67CA98E6D35906AA82A52BFB39ABCD5CD915C86331BD86BD3B665CD8BD52C78D0F34F46E550061C419494B6843142CB0F5677F4D0D58717DA7494F26295FF31C565FCA7296A13AA728FBBD93C0896823C09C18BB5AFB4
310
9E65A6BD762BBE01504B010214000A0000080000B670623B3DEE336E79000000790000001B00000000000000000000000000000000006175746F6465736B2D64657369676E2D7061636B6167652E786D6C504B01021400140006080800B670623BD486FD9CA0000000F40000001300000000000000000000000000B2000000
310
5B436F6E74656E745F54797065735D2E786D6C504B01021400140006080800B670623B28ED286BEB0000007C010000080000000000000000000000000083010000636F72652E786D6C504B01021400140006080800B670623B55019EA25F0000007C000000070000000000000000000000000094020000636E782E786D6C50
310
4B01021400140006080800B670623B7BC41AC871010000D40300000C00000000000000000000000000180300006662782F636F72652E786D6C504B01021400140006080800B670623B70102A487D0000009D0000000B00000000000000000000000000B30400006662782F636E782E786D6C504B01021400140006080800B6
310
70623B3610CA3329010000120200003100000000000000000000000000590500006662782F42384135303843342D343331462D343546312D424341352D3532343432364645413344462F636F72652E786D6C504B01021400140006080800B670623B1B8617914E010000330300003000000000000000000000000000D10600
310
006662782F42384135303843342D343331462D343546312D424341352D3532343432364645413344462F636E782E786D6C504B01021400140006080800B670623BBFEF2E3B690500003C10000034000000000000000000000000006D0800006662782F42384135303843342D343331462D343546312D424341352D35323434
310
32364645413344462F6F626A656374732E786D6C504B01021400140006080000B670623B0000000000000000000000003500000000000000000000000000280E00006662782F42384135303843342D343331462D343546312D424341352D3532343432364645413344462F76657274696365732E62696E504B010214001400
310
06080800B670623BF270F133060000000400000036000000000000000000000000007B0E00006662782F42384135303843342D343331462D343546312D424341352D3532343432364645413344462F747269616E676C65732E62696E504B01021400140006080000B670623B00000000000000000000000037000000000000
310
00000000000000D50E00006662782F42384135303843342D343331462D343546312D424341352D3532343432364645413344462F617474726962757465732E62696E504B01021400140006080800B670623B08DA0BD1900000004101000036000000000000000000000000002A0F00006662782F42384135303843342D3433
310
31462D343546312D424341352D3532343432364645413344462F6469726563746F72792E786D6C504B01021400140006080800B670623B3B4606F3FE000000A00100003B000000000000000000000000000E1000006662782F42384135303843342D343331462D343546312D424341352D3532343432364645413344462F72
310
65736F75726365732F636F72652E786D6C504B0506000000000E000E0080040000651100000000
  0
XRECORD
  5
187
102
{ACAD_REACTORS
330
186
102
}
330
186
100
AcDbXrecord
280
     1
 70
     1
 90
429727718
  1
887D55A9-D0DD-414E-B741-A7DCD4DA2B4C
310
504B03040A0000080000B670623B3DEE336E79000000790000001B0000006175746F6465736B2D64657369676E2D7061636B6167652E786D6C3C3F786D6C2076657273696F6E3D22312E302220656E636F64696E673D227574662D3822203F3E3C666F726D6174733E3C666F726D61743E687474703A2F2F736368656D612E
310
6175746F6465736B2E636F6D2F64657369676E2D7061636B6167652F323030393C2F666F726D61743E3C2F666F726D6174733E504B0304140006080800B670623BD486FD9CA0000000F4000000130000005B436F6E74656E745F54797065735D2E786D6C7D8EC10E82300C865F65E91D8A1E8C310C0EEA1BF002731658846E
310
D98AC1B77784ABF1D8FE5FBFBF75BBCE937A534CCEB38643598122B6FEE978D0B0485F9C41B54DDD7D022595594E1A469170414C76A4D9A4D207E29CF43ECE46F218070CC6BECC4078ACAA135ACF422C856C0E68EA1BF5669944DDD7BCDE7B1F8E415D77AECB980613C2E4AC91FC167A2B244592486606FC29C8FD7F045B9A
310
EF7053A7E60B504B0304140006080800B670623BBC1638F5EC0000007C01000008000000636F72652E786D6C8D90416EC3201045AF82665B61836BE2D8C24471DB9CA01740401C94182C03558F5F9C3852BBEB6A467FFE9B197D7EF89E6EE8CB2CC17AD7032D0820E394D7D68D3DA478C67B4007C117EFE32F1B202727D3C3
310
2A83E0E3E2D3BC49CABB685CCCAAF3DA6CA20CC14440EA969B1E82BA98491632C5EC08D76296EA2A4753D06797E194AC468F2356E77DF66CCD02825543D50CACC62D39ED70FDC68EB8FD68F6F8787A6784342D1DDA1D2F5758F068A7E77DB518198D065111D2624A31A93E69DD11D6D5EC85EC3B4278B9DAFF4069D6FF8492
310
75F1B5DADE7D600104CD8FDC0782976B16B9DC83CA75CD4DFC00504B0304140006080800B670623B55019EA25F0000007C00000007000000636E782E786D6C4DCB3B0E80201045D1AD90E915ED2CF8AC45050C11660C8261F98AB1B07AC9C97D42D718D865D3E909258CFD00CCE24AC6E326A164D74DC0B4128928FF326038
310
472BA13128B1252AC747C6BAB984FC68F0B87FE8960A5C09FE86CFB69FBA01504B0304140006080800B670623B3586FFB671010000D40300000C0000006662782F636F72652E786D6CC553ED6E8320147D15C2DF4541A76D6D90A6DDD627D80B50A4CE54C120983EFEAE1F4DD7A55BBA5FF3879273EEE59E7310B6393735EA
310
95ED2AA3731C851423A5A5292A5DE6D8BB63B0C268C39935C67D29C3488B46E578803167A535BE9D2169B453DA01AA4DA16650749D7218C91A1639EEE4876A4428BC838AEE14B6429E44A9C228041AEA38EB9C0501681A32BC313F1ECE8C4C3867DE57C5CC56054CAB8E95B298A7F12E5EEED224C8E87E11242FE936C8DE96
310
AB60BB7F4D295D66D12E5B30323473E6AAE6A24E5A259C2A308F29CD82280A68FC1E256B9AAE93F489AED694323294DF34F9B678B0C957DA3DC7B3DCA9ADC33C022123F1CD2D44E450277AD04338234388F01913BE0D1A0281909D38D4171F27807A259DB1093085F157AA17B557309586747CD0CF0B46A64E983A6E0EAEEF
310
CE881F9EF1FB8E70D44297604238581EBC1B74B249C31C5AAB6CD0BB33D2C636A27ECCC62F0EFF445DC5DF95244D6DEC7F2922F30191F9F720C37DE49F504B0304140006080800B670623B4220A0FF7D0000009D0000000B0000006662782F636E782E786D6C4DCCD10A83201886E15B91FFDCE542CB0335D0EC3E6259C84A
310
C3E9D8E5AF46073BFAE0E1E315DD675BD1DBA5978F41C2FD4600B9F088930F8B849267CC01754AA418F3DF0D50183727E164506249B1EC174D6E1ECB9A0F5D7D785E68DB8151CD286E5A5363CA6B8A39E90D36D40E96B086F55A43A544F52B1D7B86D517504B0304140006080800B670623B2FA3FEDE290100001202000031
310
0000006662782F45374635344235342D363743322D343832342D383044432D4334454645303536354442422F636F72652E786D6C8D515B6EC32010BC0AE22B55850D2E386E848994D7097A0117488A1283C5A3CAF10BB523B57FF961D1ECCCECC0F2ED7DBC816FED8371B687A4C210682B9D32F6D2C314CFA883602BB8772E
310
FEA141608751F7B0C050F08B77695A20E96CD43666D43AA5177008414708E42D5F7A18E4971E876A483133C2B59A06791D2EBA22556E679EE021FA1C00CC43CA09C5717D6274C7286AD7FB06D1AEA1A8C3873DDAD3E3E98859CB0EBB1DAF67A1E02919B5C88DCA71CCD968FFAC49110B1ECDF8882FBD1EA256503418BF2342
310
106E3E08DD60B6A1EC15771B8C795DE8FF4469524F8A92B1F1AD59E2CEB20005E1F5DC105CB9F4797B84D1F7C9F908CABC55D0F2050A5C61CC1AD2F27A26E6E767C7962E8E213A9FBF7775FDCC5CC266DB960A5E970DE5F2BBBE5CCB36C50F504B0304140006080800B670623B1B8617914E01000033030000300000006662
310
782F45374635344235342D363743322D343832342D383044432D4334454645303536354442422F636E782E786D6CD593C16EC32010447F0571AD6CE3D489D20813A9877E410FBD62D82434182CC055F3F75D1292E692438FBD206B7698593D61BEFD1E2DF982108D773D6D6B460938E5B571FB9ECE6957AD29D90A1EBC4F77
310
364A9C1CA1A759A682EF839FA72269D8C9D92654AD71C72206887E0E0A22CAF926B15E498B01E0AA19451807D01A34B919F16B070157417138917400F2F6FA41FCF0092A45DEE414C19BDC21783E4BD39D891265658C3D8DEA00A3ACE59CBC8678ACB54CB26EEB6BD7839D7E9348BE70AD9C8321B9BCA7F9A4A26C542347DE
310
E050F09802D22BA6749A800A394DD62899107273365E3C82CFC6A55557BC06C10774B7ABE7AEC3B0F34CF06446280E154026D0542C187BA9DAB6628BF7B6DBB0E5A65B3EB1F58631DE64BBE083F7B65CC218087E22CABB042E51D1F2268F1FE12B3EA24D40D63E9CFE00120194D60B9D5BC67FE6D39CDF37E20AF817881F50
310
4B0304140006080800B670623B29652116630500003C100000340000006662782F45374635344235342D363743322D343832342D383044432D4334454645303536354442422F6F626A656374732E786D6CAD575D739B3814FD2B0CFB0C989834C90EA1639B24E3E9A6EDD4D3CE3E64C623834CD8006224913AFDF57B040203
310
B65BEF871F0C12D2FD3CF7E8CA7FBFCB33E3957291B2E2D674ED8969D02262715A24B76625B7D6B569BC0F7CCE98EC2D338D82E4F4D654D366E0279C55A59E8AE99654991CCDDECFFF3444440B6A1A514684B83545F44C7362934AB2988A173B2692D8C97667BB76B3702836E1A47C1E092D09A78584A5982F20C5688C7287
310
C389E904BEA3BE07BEFAD7ABA6A75739B53F43FD69212429A20365233153D70BEF2E2E6FAC4BCF9B5ADEBB0BD79ADFCF43CBBD9A4E16EF168B9BD9DD0D140BC921495BC2E9D60C1E101B9E46BED37CEA2CD6861F3329624541A3DA7F7858DBAC25C6B4A4458C3CA654405BCFEBC970E8AAD8F43E4FD558ABEC4F9FE7557F47
310
4F506B7BFBEC5BCA367FC105710E2AB8A00A554D7CB4A30DFE26FBA86D18CBF4B75418399194A72433B274C3097F33032C554B027F2046A1932B842B0FCCC0DDCBEBDB8AD2F835768F59B9ADB24C41D30C6A64AF817F2A456D59FA83F2E3DA60137255A585BCD60EC9B7929AC18DEFD49381AF1ED30BFDB109A4B1CD488294
310
C3CDE6EBC8D185AABD6568061FEE37BB95AAC7E3CA4BCE4ACAA5820FA0D526AE7DAA2869B5EE5999531BE0CC20E6FBA07C41E43FA27CF7A6206F3CDD793B4F6B919C1462CB788EDCD893FA674CDA17AB7B3B7C019F8D561FAEE966FED562DFE98C1D12C6A9FC015C2A35D7FF3D7FC398F591DA4B5FE0BFA2C0189FEA50AE22
310
92817A1ED3020951A03432862970F976B33383259812CC8E5D240BBA801CBCF8CE2BBEE3BF910DB6AAD5F79E05123AE2DB33981FB1ACCB02B69D00CB014FD68AB573A7627EF9BFD4CC2C5C7D58557C4B22FAA88925A4DBB44825CECE3D78FB060D1231F0E885BE7D673C86A3874958F593906B5502D1563157814FDAC3420D
310
F69A070A22EC4B98E23CFF171A1E5311D12C23056555ABA53B8614563B92D17D02AAB009E8F46284624E5F53D5490C560CCCC2591FF1B45421EB0EBD8EA7ED13BE7C5D7E0428CD60FEF60779EB13E6664FF711CB185F6FDED60D139A001FF60CD1FD6D086F1D51474901E26B2CB794A343BC8ED3EDB612E0DD2351FCB65CF4
310
33D511C9E14B5B40ADC6A6263DB0336A8F700DDF56271A024E70B0B3629DE21847591E55DED73D56206AB927E46FAABC5C939C55853C274C93D69FD6FA4E78BF8B11DF898C9ECD60553FAD39283BA6F18984AA23E8884F83F45C5F5F859797B31B2B9C84A1E5B9DE9D35BFF25C6B76152E422F9C5DCC3D847F5801ED09D5AF
310
41441327A25FF15487F9EB725FB666F048A4701E9A827292E6F97569A32DF61DEC01C0BB8DCBBCCC684E0B49147C1FD54BF685A0AB18C868E6973949E819523E3DAC463660E68C7D9F55A9D1EFA3BD7A76A16AE1A810F95CE59B82A4D968A376DC2E8B44BBDD86B27B368CDE0ED548C7137DA860591A83706223A12CA712B4
310
7306DBF39C0A20A6DF95C7FAF670C6EED7A61F946493D1D6926782963813403548A78AE470DEF80D2D9CEAA26E4D1C76F60BFE74219A06527D6B82DF641A51616F703CAAC6A7160E08A00BEB4810A0274592A1B36E3675E36E978A0DE80727A0D6DF2D39A75BD27E0D8837276589537B40ABB56D5A41F48F1C6FCD3188C4EB
310
A6929D2FFB89CE995A4D00AE813BDD032DC48B56BD437DFDDC2DD7AED70C2272D63DE9A72068A45A92F0A4BE17A8A06B9366E16707AD80B1FC649459952097E74BB23805982B55E0401150A165964402AA8BDF9F3E7386BB686EDCA780C0D382E5392BF460A6EFB2C6EA1937D3F809B440D5F5435C4C5CF7A9EEFAF54564BD
310
2182DA24162F98680B4E7930C21A0079709CEAEB99A372305ABE0C0D7D6078105A83F6A0296DAEE1068A47DD1C55A9F4C9B2FC69E3EFD44B81028E963DF81B504B0304140006080000B670623B000000000000000000000000350000006662782F45374635344235342D363743322D343832342D383044432D433445464530
310
3536354442422F76657274696365732E62696E504B0304140006080800B670623BF270F1330600000004000000360000006662782F45374635344235342D363743322D343832342D383044432D4334454645303536354442422F747269616E676C65732E62696E636660600000504B0304140006080000B670623B00000000
310
0000000000000000370000006662782F45374635344235342D363743322D343832342D383044432D4334454645303536354442422F617474726962757465732E62696E504B0304140006080800B670623B08DA0BD19000000041010000360000006662782F45374635344235342D363743322D343832342D383044432D4334
310
454645303536354442422F6469726563746F72792E786D6C858F410AC3201045AF22B36F53E9A60B35CBEEBAE80D244E44489C6234F4F835464A48035D0DF398FF9F8AF63D0E6CC63039F212F8F9020C7D47C6792B21C5FE7403D62A1188E2E60C98D7234A5830286103A55745067B9D86B8A3CF9C7F90C11DE607FB144396
310
D7B6A82D282E9A152AD114D5EF2CB866EEE831B8EEA07A7BB5A8D7D61A2BAAEB7FD5F70921FF497D00504B0304140006080800B670623B6378F24DFF000000A00100003B0000006662782F45374635344235342D363743322D343832342D383044432D4334454645303536354442422F7265736F75726365732F636F72652E
310
786D6C8D504B6E833010BD0A9A6D65B0094E42641C85B639412F6099496225D8C89FAAC7AF09546A77DDCC8CDE47F3F4C4F16B7C149FE88371B603565228D06A37187BED20C50BD9437194C23B177FC9A0B06AC40E6618A4B87A97A615D2CE46B431A3D60DB8822A048C50E8473E3A08FA86A32A558A5911EEE5A4F45D5DB1
310
6465A6B34E8A107D0E502C4FE609D26370C96B0CA25A58295232C3AA3143FE692E063D485EF7F5AEE71BD2D2F39634AFFC44DAF7DD9E9CCE6F9CD25DCBFA762BAAD92C4534E34F46ED51451C40D694B6843142EB0FD61C283F34FC85EE0F948A6A96FF31A569F8A729191B37F51A77B105902C0779125254735F793DCBCC7B
310
EE567E03504B010214000A0000080000B670623B3DEE336E79000000790000001B00000000000000000000000000000000006175746F6465736B2D64657369676E2D7061636B6167652E786D6C504B01021400140006080800B670623BD486FD9CA0000000F40000001300000000000000000000000000B20000005B436F6E
310
74656E745F54797065735D2E786D6C504B01021400140006080800B670623BBC1638F5EC0000007C010000080000000000000000000000000083010000636F72652E786D6C504B01021400140006080800B670623B55019EA25F0000007C000000070000000000000000000000000095020000636E782E786D6C504B010214
310
00140006080800B670623B3586FFB671010000D40300000C00000000000000000000000000190300006662782F636F72652E786D6C504B01021400140006080800B670623B4220A0FF7D0000009D0000000B00000000000000000000000000B40400006662782F636E782E786D6C504B01021400140006080800B670623B2F
310
A3FEDE290100001202000031000000000000000000000000005A0500006662782F45374635344235342D363743322D343832342D383044432D4334454645303536354442422F636F72652E786D6C504B01021400140006080800B670623B1B8617914E010000330300003000000000000000000000000000D2060000666278
310
2F45374635344235342D363743322D343832342D383044432D4334454645303536354442422F636E782E786D6C504B01021400140006080800B670623B29652116630500003C10000034000000000000000000000000006E0800006662782F45374635344235342D363743322D343832342D383044432D4334454645303536
310
354442422F6F626A656374732E786D6C504B01021400140006080000B670623B0000000000000000000000003500000000000000000000000000230E00006662782F45374635344235342D363743322D343832342D383044432D4334454645303536354442422F76657274696365732E62696E504B01021400140006080800
310
B670623BF270F13306000000040000003600000000000000000000000000760E00006662782F45374635344235342D363743322D343832342D383044432D4334454645303536354442422F747269616E676C65732E62696E504B01021400140006080000B670623B0000000000000000000000003700000000000000000000
310
000000D00E00006662782F45374635344235342D363743322D343832342D383044432D4334454645303536354442422F617474726962757465732E62696E504B01021400140006080800B670623B08DA0BD190000000410100003600000000000000000000000000250F00006662782F45374635344235342D363743322D34
310
3832342D383044432D4334454645303536354442422F6469726563746F72792E786D6C504B01021400140006080800B670623B6378F24DFF000000A00100003B00000000000000000000000000091000006662782F45374635344235342D363743322D343832342D383044432D4334454645303536354442422F7265736F75
310
726365732F636F72652E786D6C504B0506000000000E000E0080040000611100000000
  0
XRECORD
  5
112
102
{ACAD_REACTORS
330
110
102
}
330
110
100
AcDbXrecord
280
     1
270
     1
271
     1
  0
XRECORD
  5
111
102
{ACAD_REACTORS
330
110
102
}
330
110
100
AcDbXrecord
280
     1
270
     1
271
     1
  0
XRECORD
  5
18A
102
{ACAD_REACTORS
330
110
102
}
330
110
100
AcDbXrecord
280
     1
 70
     0
 90
1778669749
  1
9BF507EE-FAF7-4A99-A33D-4EE51894BC40
310
504B03040A0000080000B670623B3DEE336E79000000790000001B0000006175746F6465736B2D64657369676E2D7061636B6167652E786D6C3C3F786D6C2076657273696F6E3D22312E302220656E636F64696E673D227574662D3822203F3E3C666F726D6174733E3C666F726D61743E687474703A2F2F736368656D612E
310
6175746F6465736B2E636F6D2F64657369676E2D7061636B6167652F323030393C2F666F726D61743E3C2F666F726D6174733E504B0304140006080800B670623BD486FD9CA0000000F4000000130000005B436F6E74656E745F54797065735D2E786D6C7D8EC10E82300C865F65E91D8A1E8C310C0EEA1BF002731658846E
310
D98AC1B77784ABF1D8FE5FBFBF75BBCE937A534CCEB38643598122B6FEE978D0B0485F9C41B54DDD7D022595594E1A469170414C76A4D9A4D207E29CF43ECE46F218070CC6BECC4078ACAA135ACF422C856C0E68EA1BF5669944DDD7BCDE7B1F8E415D77AECB980613C2E4AC91FC167A2B244592486606FC29C8FD7F045B9A
310
EF7053A7E60B504B0304140006080800B670623BCA089DFFEC0000007C01000008000000636F72652E786D6C8D90416E83301045AF62CDB632D8402020E32882F604BD80653BC44AB011B6AB1EBF262152BBEB6A467FFE9B197D76FA9EEFE84BAFDE38DB03CD08206DA553C64E3DC470C1474027CE56E7C22F1B202B66DDC3
310
260367D3EAE2B24BD2D9A06D48AA754AEFA2F05E0740F29E9A1EBCBCEA59642286E4F0B76C11F226269DD15797E0188D42CF2346A57DE662F40ABCAEC77628C6120F654571D50C04B7F5B9C1E3997CD4F550BE3745C3F20DE62C98F9755FAE5A04AD801784B498524C8A4F5A75E4D055873772EC0861F966FF03C545FD138A
310
C686B2D8DF7D621E384D8F3C069CE55B16A93C824A75CB8DFF00504B0304140006080800B670623B55019EA25F0000007C00000007000000636E782E786D6C4DCB3B0E80201045D1AD90E915ED2CF8AC45050C11660C8261F98AB1B07AC9C97D42D718D865D3E909258CFD00CCE24AC6E326A164D74DC0B4128928FF326038
310
472BA13128B1252AC747C6BAB984FC68F0B87FE8960A5C09FE86CFB69FBA01504B0304140006080800B670623B68FC0B7272010000D40300000C0000006662782F636F72652E786D6CC5535B6E833010BC8AE5DF0A6C1E8124328E22D29EA01770C0A128602363A31CBFCB234A53A555FA553EC09AD9F5CE8C31DB5DDA060D
310
D2F4B556190E7C8A9154852E6B5565D8D993B7C668C799D1DA7E29C3488956667884316795D1AE5BA0422B2B950554E9522EA0E87B69312A1A5864B82F3E642B7CE12C54F467BF13C55954D20F7CA0A18EB3DE1A1080E621E31BF3D3F1C2C88C73E65C5D2E6C5DC2B4FA544B8379921C36797888BC3C8A032F4E73EA6D927D
310
EA1DF6F42D49F2E8350D5346C666CE6CDD5ED515460A2B4BCC434A375E1078347C0FE22D5D6DE3D50B5D6F2965642CBF6B725DF96493AB958DC245EEDCD6631E809089F8E61622B2A81703E8219C913144F84C09DF070D8140C8561C9BAB8F3340832CAC363130A576376A108D933095FA747AD0CF0B46E64E983A6D0EAE1F
310
CE089F9EF1FB8E70D44255604258581E9D1D75B259C3125A278D37D80B52DAB4A279CEC62F0EFF44DDC43F9454E8469BFF5244960322CBEF41C6FBC83F01504B0304140006080800B670623B0F71DDB67E0000009D0000000B0000006662782F636E782E786D6C4DCCD10A83201886E15B91FFDCA54DB73F502386BB8F5816
310
32D3703976F9ABD1C18E3E78F87855FB990379BBFCF2296AE02706C4C5471A7C9C349475A408A4352AA7B4FEDD80C47E761A7606A3A69CCA72D0E0C6BE8475D3E0E3F3409428EA6B27A84079A782899AA2EC1A7AE3ECCC2FD858CB2D544655BFD2B67BD87C01504B0304140006080800B670623BE134B4FB28010000120200
310
00310000006662782F38353834323741342D343835462D343034322D383541392D4331303331363839454531452F636F72652E786D6C8D515B6EC32010BC0AE22B55850D0EA424C24451959EA0172086A42831583CAA1CBF503B52FB971F16CDCECC0EACD8DFC71BF836215AEF7A481A0C817183D7D65D7A98D3197108F652
310
04EFD31F1A044E8DA6871586525C82CFD3020DDE25E352419DD76601558C264130DCCAA58771F832A36A544E8511AFCDA486ABBA988634A55D7852C4144A00300FA927949C71DABD1D28A29C7D208A6987383B6CD13BC16BB2E1DBE3911C453B0BA5C8D9EA456E758963CFD684674DAA588A64C747FC2118958C86B2C3788B
310
0841B8FB247487D98EB257CC77188BB6D2FF89F2A49F1465EBD2BA5BE2CEB2082511EDDC9042FB7CBA3DC298FBE4430275DE2A9AE1054ADC60CC08E3A29D89E5F9C5714317C7987C28DFBBBA9E0A97B0D97643A568EB864AF95D5FA9759BF207504B0304140006080800B670623B1B8617914E010000330300003000000066
310
62782F38353834323741342D343835462D343034322D383541392D4331303331363839454531452F636E782E786D6CD593C16EC32010447F0571AD6CE3D489D20813A9877E410FBD62D82434182CC055F3F75D1292E692438FBD206B7698593D61BEFD1E2DF982108D773D6D6B460938E5B571FB9ECE6957AD29D90A1EBC4F
310
77364A9C1CA1A759A682EF839FA72269D8C9D92654AD71C72206887E0E0A22CAF926B15E498B01E0AA19451807D01A34B919F16B070157417138917400F2F6FA41FCF0092A45DEE414C19BDC21783E4BD39D891265658C3D8DEA00A3ACE59CBC8678ACB54CB26EEB6BD7839D7E9348BE70AD9C8321B9BCA7F9A4A26C542347
310
DEE050F09802D22BA6749A800A394DD62899107273365E3C82CFC6A55557BC06C10774B7ABE7AEC3B0F34CF06446280E154026D0542C187BA9DAB6628BF7B6DBB0E5A65B3EB1F58631DE64BBE083F7B65CC218087E22CABB042E51D1F2268F1FE12B3EA24D40D63E9CFE00120194D60B9D5BC67FE6D39CDF37E20AF817881F
310
504B0304140006080800B670623B5933D422630500003B100000340000006662782F38353834323741342D343835462D343034322D383541392D4331303331363839454531452F6F626A656374732E786D6CAD575B6FA33814FE2B887D0642934E9B156594264D158D3A534DD4D13E548A0C38942D60649B4EBABF7E3F8321
310
40924EF6928780CDF1B97EE762EFF32E4B8D37CA45C2F21BD3B547A641F39045491EDF98A5DC5AD7A6F1D9F73863B243661A39C9E88DA9B64DDF8B392B0BBD15D12D295339D85DDEFE618890E6D434C2940871638AF08566C426A5641115AF764424B1E3EDCE76ED9AB0CF36E6A47819302D08A7B984A6D8CFC1C5A89572FB
310
CB91E9F89EA3BEFB9EFAD754E3D3544E654F5F7E920B49F2F040D880CDD89D2CEE2E2EA7D6E56432B6269F2E5CEB7679BBB0DCABF168FE693E9FCEEEA6102C240727AD09A75BD3BF876F78127A4EFDA9D5582B7E4CA590E5390D2BFB6161A5B3E618D182E611E2985001691DAB47FDA5AB7CD3F93C566B2DB2BB7D9E55DD13
310
1D468DEECDB3AB290BFE8409E21C54704115AA6AFF68436BFC8DF65E0B184BF5B74418199194272435D224E084BF9B3E481589EFF5D828747285706581E9BB7B7E5D5D911ABFC6EE312DB7659A2A689A7E85EC0DF04FA5A8344BFEA2FCB834E8845895492EAFB541F2BDA0A63FF59C6AD3F7D4637CA13FD68E34B629891172
310
98597F1D183A57B9B75A98FE9765B05BAB7C3C2EBCE0ACA05C2AF8005A4DE09AA7F29216EB9E15397500C6F47CBE77CA7778FE2BD277AF0AE2C693DD6437D1522427B9D8329E2136F6A8FA19A3E6C56ADF0E5F50CF06D48734EDCEBF22F69C56D97EC138153F804B85E6FABFC7AFEFB32E523BE1F3BD372418E363EDCA7548
310
52949E8724474014288D94610BB57C1BEC4C7F854A89CA8E5324F55B871CBC78CE1BBEE3BFE68D6A5589EF3C730474506FCFA8FCF0659516D0ED04580EEA6425581B77CAE797FF4BCECC16EB2FEB926F49481F746159D06D922712BD730FDEAE42BD40F42C7AA5EF3F198F60E86110D6DD20645A9480B795CF95E3E3A659A8
310
C55E724F408873315335CFFB8584874484344D494E59D94869DB90C26A5B64F49C802CAC1D3ABE18A098D3B7444D123D8A9E5AE8F5214F0AE5B2B6E9B575DA3E61CBD3EA2B4009FA940524DD1305FB6A1FB294F14DF0BEA90BA109ECE1481FDC3FFAE8D60E75141700BE82725371B4873751B2DD960265F788137FACE6DD40
310
B575E4F0A5C99F46629D92131467A41EE11ABD8D4CCC039CA0AFB37C93A08B232B8F0AEFCA1E0A1015DF13FC83322B362463652ECF71D3A8B1A7D1BE65DE1D62C44F22C317D35F574FEB16153BA2D13E543D10A80E74C4A65E78A6B7CBCBD1D5DD9DB59C2DAFACC96C3AB566E3F1C29ADCDD5DBAD7D3C9ED7C822ED74F80A6
310
41755310DE4443F44A9E68373FADF6596BFA0F440AE7BECE2727AE9F4F2B1B53B1E7E00CF0DD1E5C65454A339A4BA2D0FBA05ED2EF0443458F47BDBFCA484CCFE0F2ED7E3DD0013B679C7B5499467F0ECEEADDB9CA85A34CE44B99053949D2C1416DB85DE4B136BB7165FBAC0B7AB3542BED4F8CA182A549847A1319316519
310
95A83A67147B9E5101C47487F2485F1ECE38FD568F839204296D3479219888530154036E6528FBFBC66F98E0D4107563A2D7D9AFF8D389681A08F58D89F22693900A3B407754734FC51C10C010D6D640809EE4718AC1BA3ED4AEDB53CA37283F68805A7E4B72CEB0A4EDEAD5DD8C14059A76AFAA56BA6901E13F32BC51C720
310
12AF41295B5BF61BAD3195181FB506E6B40F4C10AF5AF40EF9F5B159AE5DD1F43C72D635E94310D45C2D49785C5D0B94D3B54AB3C5A38349C0587D338AB48C11CBF339599C02CCA54A70A008A8D03C0B2201D5F9EFCF8F9CE12A9A19CB0410789EB32C63B95ECCF455D658BFE0621A3DA32C5075FB101723D77DAE867E7D0F
310
D90444509B44E2151B4DC2290B065803200FBAA9BE9D392A0603F2D5C2D00D6302A615680F66D2FA166E2079D4C551A54AB758161FCEFD4E450A14704CECFEDF504B0304140006080000B670623B000000000000000000000000350000006662782F38353834323741342D343835462D343034322D383541392D4331303331
310
363839454531452F76657274696365732E62696E504B0304140006080800B670623BF270F1330600000004000000360000006662782F38353834323741342D343835462D343034322D383541392D4331303331363839454531452F747269616E676C65732E62696E636660600000504B0304140006080000B670623B000000
310
000000000000000000370000006662782F38353834323741342D343835462D343034322D383541392D4331303331363839454531452F617474726962757465732E62696E504B0304140006080800B670623B08DA0BD19000000041010000360000006662782F38353834323741342D343835462D343034322D383541392D43
310
31303331363839454531452F6469726563746F72792E786D6C858F410AC3201045AF22B36F53E9A60B35CBEEBAE80D244E44489C6234F4F835464A48035D0DF398FF9F8AF63D0E6CC63039F212F8F9020C7D47C6792B21C5FE7403D62A1188E2E60C98D7234A5830286103A55745067B9D86B8A3CF9C7F90C11DE607FB1443
310
96D7B6A82D282E9A152AD114D5EF2CB866EEE831B8EEA07A7BB5A8D7D61A2BAAEB7FD5F70921FF497D00504B0304140006080800B670623BD9A3B367FE000000A00100003B0000006662782F38353834323741342D343835462D343034322D383541392D4331303331363839454531452F7265736F75726365732F636F7265
310
2E786D6C8D504B6E833010BD0A9A6D65B01D0201194711694FD00B586642AD043BF2A7EAF16B122AB5BB6E6646EFA3797AE2F8B5DC8A4FF4C1383B002B291468B59B8C9D0748F1420E501CA5F0CEC55F3228AC5A708015062966EFD27D83B4B3116DCCA875136EA00A012314FA968F0182FEC045952AC5AC08D7F2AEF455CD
310
58B232D3592745883E07289E4FD609D26370C96B0CA27AB252A464A64D63A6FCD35C0C7A904D73EE467EE664DCD58CD4ED4849D79C5A723ED1B7A61977AF2D6F45B59AA58866F9C9A83DAA8813484E6947182394BFB3BAA7FBBEDEBFD0434FA9A856F91F53BA4FFF342563E38E6F719FB60092E5200F428A6AED2BAF479979
310
AFDDCA6F504B010214000A0000080000B670623B3DEE336E79000000790000001B00000000000000000000000000000000006175746F6465736B2D64657369676E2D7061636B6167652E786D6C504B01021400140006080800B670623BD486FD9CA0000000F40000001300000000000000000000000000B20000005B436F6E
310
74656E745F54797065735D2E786D6C504B01021400140006080800B670623BCA089DFFEC0000007C010000080000000000000000000000000083010000636F72652E786D6C504B01021400140006080800B670623B55019EA25F0000007C000000070000000000000000000000000095020000636E782E786D6C504B010214
310
00140006080800B670623B68FC0B7272010000D40300000C00000000000000000000000000190300006662782F636F72652E786D6C504B01021400140006080800B670623B0F71DDB67E0000009D0000000B00000000000000000000000000B50400006662782F636E782E786D6C504B01021400140006080800B670623BE1
310
34B4FB280100001202000031000000000000000000000000005C0500006662782F38353834323741342D343835462D343034322D383541392D4331303331363839454531452F636F72652E786D6C504B01021400140006080800B670623B1B8617914E010000330300003000000000000000000000000000D3060000666278
310
2F38353834323741342D343835462D343034322D383541392D4331303331363839454531452F636E782E786D6C504B01021400140006080800B670623B5933D422630500003B10000034000000000000000000000000006F0800006662782F38353834323741342D343835462D343034322D383541392D4331303331363839
310
454531452F6F626A656374732E786D6C504B01021400140006080000B670623B0000000000000000000000003500000000000000000000000000240E00006662782F38353834323741342D343835462D343034322D383541392D4331303331363839454531452F76657274696365732E62696E504B01021400140006080800
310
B670623BF270F13306000000040000003600000000000000000000000000770E00006662782F38353834323741342D343835462D343034322D383541392D4331303331363839454531452F747269616E676C65732E62696E504B01021400140006080000B670623B0000000000000000000000003700000000000000000000
310
000000D10E00006662782F38353834323741342D343835462D343034322D383541392D4331303331363839454531452F617474726962757465732E62696E504B01021400140006080800B670623B08DA0BD190000000410100003600000000000000000000000000260F00006662782F38353834323741342D343835462D34
310
3034322D383541392D4331303331363839454531452F6469726563746F72792E786D6C504B01021400140006080800B670623BD9A3B367FE000000A00100003B000000000000000000000000000A1000006662782F38353834323741342D343835462D343034322D383541392D4331303331363839454531452F7265736F75
310
726365732F636F72652E786D6C504B0506000000000E000E0080040000611100000000
  0
XRECORD
  5
113
102
{ACAD_REACTORS
330
110
102
}
330
110
100
AcDbXrecord
280
     1
270
     1
271
     1
  0
XRECORD
  5
114
102
{ACAD_REACTORS
330
110
102
}
330
110
100
AcDbXrecord
280
     1
270
     1
271
     1
  0
XRECORD
  5
575
102
{ACAD_REACTORS
330
1C4
102
}
330
1C4
100
AcDbXrecord
280
     1
102
DISPLAYNAME
  1
Imperial24
102
FLAGS
 90
        0
  0
XRECORD
  5
577
102
{ACAD_REACTORS
330
569
102
}
330
569
100
AcDbXrecord
280
     1
102
DISPLAYNAME
  1
Metric50
102
FLAGS
 90
        0
  0
CELLSTYLEMAP
  5
574
102
{ACAD_REACTORS
330
104
102
}
330
104
100
AcDbCellStyleMap
 90
        3
300
CELLSTYLE
  1
TABLEFORMAT_BEGIN
 90
        5
170
     1
 91
        0
 92
    32768
 62
   257
 93
        1
300
CONTENTFORMAT
  1
CONTENTFORMAT_BEGIN
 90
        0
 91
        0
 92
      512
 93
        0
300

 40
0.0
140
1.0
 94
        5
 62
     0
340
11
144
0.25
309
CONTENTFORMAT_END
171
     1
301
MARGIN
  1
CELLMARGIN_BEGIN
 40
0.06
 40
0.06
 40
0.06
 40
0.06
 40
0.18
 40
0.18
309
CELLMARGIN_END
 94
        6
 95
        1
302
GRIDFORMAT
  1
GRIDFORMAT_BEGIN
 90
        0
 91
        1
 62
     0
 92
       -2
340
0
 93
        0
 40
0.045
309
GRIDFORMAT_END
 95
        2
302
GRIDFORMAT
  1
GRIDFORMAT_BEGIN
 90
        0
 91
        1
 62
     0
 92
       -2
340
0
 93
        0
 40
0.045
309
GRIDFORMAT_END
 95
        4
302
GRIDFORMAT
  1
GRIDFORMAT_BEGIN
 90
        0
 91
        1
 62
     0
 92
       -2
340
0
 93
        0
 40
0.045
309
GRIDFORMAT_END
 95
        8
302
GRIDFORMAT
  1
GRIDFORMAT_BEGIN
 90
        0
 91
        1
 62
     0
 92
       -2
340
0
 93
        0
 40
0.045
309
GRIDFORMAT_END
 95
       16
302
GRIDFORMAT
  1
GRIDFORMAT_BEGIN
 90
        0
 91
        1
 62
     0
 92
       -2
340
0
 93
        0
 40
0.045
309
GRIDFORMAT_END
 95
       32
302
GRIDFORMAT
  1
GRIDFORMAT_BEGIN
 90
        0
 91
        1
 62
     0
 92
       -2
340
0
 93
        0
 40
0.045
309
GRIDFORMAT_END
309
TABLEFORMAT_END
  1
CELLSTYLE_BEGIN
 90
        1
 91
        1
300
_TITLE
309
CELLSTYLE_END
300
CELLSTYLE
  1
TABLEFORMAT_BEGIN
 90
        5
170
     1
 91
        0
 92
        0
 62
   257
 93
        1
300
CONTENTFORMAT
  1
CONTENTFORMAT_BEGIN
 90
        0
 91
        0
 92
      512
 93
        0
300

 40
0.0
140
1.0
 94
        5
 62
     0
340
11
144
0.18
309
CONTENTFORMAT_END
171
     1
301
MARGIN
  1
CELLMARGIN_BEGIN
 40
0.06
 40
0.06
 40
0.06
 40
0.06
 40
0.18
 40
0.18
309
CELLMARGIN_END
 94
        6
 95
        1
302
GRIDFORMAT
  1
GRIDFORMAT_BEGIN
 90
        0
 91
        1
 62
     0
 92
       -2
340
0
 93
        0
 40
0.045
309
GRIDFORMAT_END
 95
        2
302
GRIDFORMAT
  1
GRIDFORMAT_BEGIN
 90
        0
 91
        1
 62
     0
 92
       -2
340
0
 93
        0
 40
0.045
309
GRIDFORMAT_END
 95
        4
302
GRIDFORMAT
  1
GRIDFORMAT_BEGIN
 90
        0
 91
        1
 62
     0
 92
       -2
340
0
 93
        0
 40
0.045
309
GRIDFORMAT_END
 95
        8
302
GRIDFORMAT
  1
GRIDFORMAT_BEGIN
 90
        0
 91
        1
 62
     0
 92
       -2
340
0
 93
        0
 40
0.045
309
GRIDFORMAT_END
 95
       16
302
GRIDFORMAT
  1
GRIDFORMAT_BEGIN
 90
        0
 91
        1
 62
     0
 92
       -2
340
0
 93
        0
 40
0.045
309
GRIDFORMAT_END
 95
       32
302
GRIDFORMAT
  1
GRIDFORMAT_BEGIN
 90
        0
 91
        1
 62
     0
 92
       -2
340
0
 93
        0
 40
0.045
309
GRIDFORMAT_END
309
TABLEFORMAT_END
  1
CELLSTYLE_BEGIN
 90
        2
 91
        1
300
_HEADER
309
CELLSTYLE_END
300
CELLSTYLE
  1
TABLEFORMAT_BEGIN
 90
        5
170
     1
 91
        0
 92
        0
 62
   257
 93
        1
300
CONTENTFORMAT
  1
CONTENTFORMAT_BEGIN
 90
        0
 91
        0
 92
      512
 93
        0
300

 40
0.0
140
1.0
 94
        2
 62
     0
340
11
144
0.18
309
CONTENTFORMAT_END
171
     1
301
MARGIN
  1
CELLMARGIN_BEGIN
 40
0.06
 40
0.06
 40
0.06
 40
0.06
 40
0.18
 40
0.18
309
CELLMARGIN_END
 94
        6
 95
        1
302
GRIDFORMAT
  1
GRIDFORMAT_BEGIN
 90
        0
 91
        1
 62
     0
 92
       -2
340
0
 93
        0
 40
0.045
309
GRIDFORMAT_END
 95
        2
302
GRIDFORMAT
  1
GRIDFORMAT_BEGIN
 90
        0
 91
        1
 62
     0
 92
       -2
340
0
 93
        0
 40
0.045
309
GRIDFORMAT_END
 95
        4
302
GRIDFORMAT
  1
GRIDFORMAT_BEGIN
 90
        0
 91
        1
 62
     0
 92
       -2
340
0
 93
        0
 40
0.045
309
GRIDFORMAT_END
 95
        8
302
GRIDFORMAT
  1
GRIDFORMAT_BEGIN
 90
        0
 91
        1
 62
     0
 92
       -2
340
0
 93
        0
 40
0.045
309
GRIDFORMAT_END
 95
       16
302
GRIDFORMAT
  1
GRIDFORMAT_BEGIN
 90
        0
 91
        1
 62
     0
 92
       -2
340
0
 93
        0
 40
0.045
309
GRIDFORMAT_END
 95
       32
302
GRIDFORMAT
  1
GRIDFORMAT_BEGIN
 90
        0
 91
        1
 62
     0
 92
       -2
340
0
 93
        0
 40
0.045
309
GRIDFORMAT_END
309
TABLEFORMAT_END
  1
CELLSTYLE_BEGIN
 90
        3
 91
        2
300
_DATA
309
CELLSTYLE_END
  0
ENDSEC
  0
SECTION
  2
ACDSDATA
 70
     2
 71
     8
  0
ACDSSCHEMA
 90
        0
  1
AcDb_Thumbnail_Schema
  2
AcDbDs::ID
280
    10
 91
        8
  2
Thumbnail_Data
280
    15
 91
        0
101
ACDSRECORD
 95
        0
 90
        1
  2
AcDbDs::TreatedAsObjectData
280
     1
291
     1
101
ACDSRECORD
 95
        0
 90
        2
  2
AcDbDs::Legacy
280
     1
291
     1
101
ACDSRECORD
  1
AcDbDs::ID
 90
        3
  2
AcDs:Indexable
280
     1
291
     1
101
ACDSRECORD
  1
AcDbDs::ID
 90
        4
  2
AcDbDs::HandleAttribute
280
     7
282
     1
  0
ACDSSCHEMA
 90
        1
  1
AcDbDs::TreatedAsObjectDataSchema
  2
AcDbDs::TreatedAsObjectData
280
     1
 91
        0
  0
ACDSSCHEMA
 90
        2
  1
AcDbDs::LegacySchema
  2
AcDbDs::Legacy
280
     1
 91
        0
  0
ACDSSCHEMA
 90
        3
  1
AcDbDs::IndexedPropertySchema
  2
AcDs:Indexable
280
     1
 91
        0
  0
ACDSSCHEMA
 90
        4
  1
AcDbDs::HandleAttributeSchema
  2
AcDbDs::HandleAttribute
280
     7
 91
        1
284
     1
  0
ACDSRECORD
 90
        0
  2
AcDbDs::ID
280
    10
320
22
  2
Thumbnail_Data
280
    15
 94
      896
310
89504E470D0A1A0A0000000D49484452000001000000009108030000001BE1960600000300504C5445212830000000C8C8C80000000000000000000000000000000000000000000000000000330000660000990000CC0000FF0033000033330033660033990033CC0033FF0066000066330066660066990066CC0066FF0099
310
000099330099660099990099CC0099FF00CC0000CC3300CC6600CC9900CCCC00CCFF00FF0000FF3300FF6600FF9900FFCC00FFFF3300003300333300663300993300CC3300FF3333003333333333663333993333CC3333FF3366003366333366663366993366CC3366FF3399003399333399663399993399CC3399FF33CC00
310
33CC3333CC6633CC9933CCCC33CCFF33FF0033FF3333FF6633FF9933FFCC33FFFF6600006600336600666600996600CC6600FF6633006633336633666633996633CC6633FF6666006666336666666666996666CC6666FF6699006699336699666699996699CC6699FF66CC0066CC3366CC6666CC9966CCCC66CCFF66FF0066
310
FF3366FF6666FF9966FFCC66FFFF9900009900339900669900999900CC9900FF9933009933339933669933999933CC9933FF9966009966339966669966999966CC9966FF9999009999339999669999999999CC9999FF99CC0099CC3399CC6699CC9999CCCC99CCFF99FF0099FF3399FF6699FF9999FFCC99FFFFCC0000CC00
310
33CC0066CC0099CC00CCCC00FFCC3300CC3333CC3366CC3399CC33CCCC33FFCC6600CC6633CC6666CC6699CC66CCCC66FFCC9900CC9933CC9966CC9999CC99CCCC99FFCCCC00CCCC33CCCC66CCCC99CCCCCCCCCCFFCCFF00CCFF33CCFF66CCFF99CCFFCCCCFFFFFF0000FF0033FF0066FF0099FF00CCFF00FFFF3300FF3333
310
FF3366FF3399FF33CCFF33FFFF6600FF6633FF6666FF6699FF66CCFF66FFFF9900FF9933FF9966FF9999FF99CCFF99FFFFCC00FFCC33FFCC66FFCC99FFCCCCFFCCFFFFFF00FFFF33FFFF66FFFF99FFFFCCFFFFFF0000000D0D0D1A1A1A2828283535354343435050505D5D5D6B6B6B787878868686939393A1A1A1AEAEAEBB
310
BBBBC9C9C9D6D6D6E4E4E4F1F1F1FFFFFF000000000000000000000000000000000000000000000000000000000000B21171F60000003B4944415478DAEDC13101000000C2A0F54F6D0B2FA0000000000000000000000000000000000000000000000000000000000000000000000000CE06919100016C9A5B1B0000000049
310
454E44AE426082
  0
ENDSEC
  0
EOF
